PrimaNota.ru - самый крупный в мире бесплатный архив песенных текстов, аккордов, табулатур и нот


Far - Really Here - текст песни, таба, видео

Регистрация Запомнить меня
Войти через:  Facebook Google Twitter Vk Yandex Mail.ru

Far - Really Here - текст песни, таба, видео

Печатать
Просмотров: 169
T1: Kevin Sullivan, kevinw@nctc.com, Far, Really Here, 1998 

  S1: Drop D tuning. Listen to cd for timing, intro(guitar 1) 

  d-------7--------------------------------------7--------------------- 
  a-9--/--5-----5/1-0----5h7--4---5---4----9--/--5----5/1-0----5h7---4- 
  d-------------------------------------------------------------------- 
  (guitar 2) 

  d--0--0--0--0--0---1--1--1 
  a--0--0--0--0--0---1--1--1 
  d--0--0--0--0--0---1--1--1 
  verse - part 1 

  e----------------------------------------- 
  b----------------------------------------- 
  g-------------------7-7-7-7-7---9-9-9-9-9- 
  d-7--7--7--7--7--7--7-7-7-7-7---9-9-9-9-9- 
  a-7--7--7--7--7--7--5-5-5-5-5-/-7-7-7-7-7- 
  d-7--7--7--7--7--7------------------------ 
  part 2 

  e-------0-----------0-----------0----------------- 
  b-2-2-2---2---2-2-2---2---3-3-3---3---3-3-3------- 
  g-2-2-2-----2-2-2-2-----2-2-2-2-----2-2-2-2------- 
  d-2-2-2-------2-2-2-------0-0-0-------0-0-0------- 
  a------------------------------------------------- 
  d------------------------------------------------- 
  chorus 

  d--------7----------5h7-4--5--5/9--7--- 
  a--9--/--5---5/1-0--------------------- 
  d-------------------------------------- 
  outro 

  e------------------------------------- 
  b------------------------------------- 
  g-7-7-7-7-7---9-9-9-9-9--------------- 
  d-7-7-7-7-7---9-9-9-9-9--5-5-5-5-5-5-- 
  a-5-5-5-5-5-/-7-7-7-7-7--5-5-5-5-5-5-- 
  d------------------------5-5-5-5-5-5-- 

  B1: Submit 
Добавлено: 23.03.2012
Другие материалы по этой песне:
  • Аккорды и текст

Страница создана 23.03.2012
http://primanota.ru/far/really-here-chords.htm
Привет, Гость.
Предлагаем пройти революционный курс по гитаре.
Подарок от PrimaNota.Ru, забирай!