PrimaNota.ru - самый крупный в мире бесплатный архив песенных текстов, аккордов, табулатур и нот


Fantomi - Duda Dudica - таба, видео

Регистрация Запомнить меня
Войти через:  Facebook Google Twitter Vk Yandex Mail.ru

Fantomi - Duda Dudica - таба, видео

Печатать
Просмотров: 106
*Intro*

e----------------------------------------------------------------------|
H----------------------------------------------------------------------|
G----------------------------------------------------------------------|
D--------------------------------------------------2-2-2-2-4-4-4-4-----|
A------------------1-1-1-1-1-1-1-1-4-4-4-4-4-4-4-4---------------------|
E--2-2-2-2-2-2-2-2-----------------------------------------------------|

-2x-

  H                   G#m          E                             F#
e-6s7-7--7-7-7-7-7-7--7-4-4-4--4---------12-12-------12-12----12----14-14----14-|
H-6s7-7--7-7-7-7-7-7--7-4-4-4--4---11s12-------11s12-------12----14-------14----|
G----------------------------------12s13-------12s13-------13----15-------15----|
D-------------------------------------------------------------------------------|
A-------------------------------------------------------------------------------|
E-------------------------------------------------------------------------------|


Chorus: 
     H                   E
     duda,duda,duda,duda,dudica \
     F#                  H       \
     duda,duda,duda,moja curica   \
     H                   E        /  2x
     duda,duda,duda,duda dudica  /
     F#            H            /
     duda,duda,dudica          /


   H                     E
1. duge noge bas je nisu krasile
   F#                     H
   plave oci bas joj nisu pasale

   lajava je bila nebi reko to

   ceskala se stalno bas blesavo


2. prijatelji su me cudno gledali
   neki su vec dobro me i zezali
   setnje gradom bile su na uzicu
   sto da radim kad ja volim Dudicu!

Chorus: 2x

*solo*

boogie-woogie riff

H
e--------------------|
H--------------------|
G-------------1------|
D-----0-1-4-4---4----|
A-2-2----------------|
E--------------------|

G#m (samo kod uvoda)
e--------------------|
H--------------------|
G--------------------|
D---------1-1-2-1----|
A-----2-4------------|
E-4-4----------------|

E
e--------------------|
H--------------------|
G--------------------|
D--------------------|
A---------2-2-4-2----|
E-0-0-3-4------------|

F#
e--------------------|
H--------------------|
G--------------------|
D-------------1------|
A-----0-1-4-4---4----|
E-2-2----------------|
Добавлено: 09.06.2013
Вам также может быть интересно:
Другие материалы по этой песне:
  • Аккорды и текст

Страница создана 09.06.2013
http://primanota.ru/fantomi/duda-dudica-chords.htm
Привет, Гость.
Предлагаем пройти революционный курс по гитаре.
Подарок от PrimaNota.Ru, забирай!