PrimaNota.ru - самый крупный в мире бесплатный архив песенных текстов, аккордов, табулатур и нот


Fantomas - Godfather - текст песни, таба, видео

Регистрация Запомнить меня
Войти через:  Facebook Google Twitter Vk Yandex Mail.ru

Fantomas - Godfather - текст песни, таба, видео

Печатать
Просмотров: 282
Уроки эстрадного вокала в Санкт-Петербурге
Fantomas, The
The Godfather
quickstring@yahoo.com

My Second Tab
If You Think You Can Play This Without The Song, You're Mistaken
You Should Knock It Out In About 20 Minutes
Drop C Tuning


Intro/Clean/Each Note Rings Out/Heavy Distortion At The 0
D|----------------------------------------------------|
A|--15--14-15-16--15-15-------15--14-15-16--15-15-----|
F|----------------------15------------------------14--|
C|----------------------------------------------------|
G|----------------------------------------------------|
C|----------------------------------------------------|

D|----------------------------------------------------|
A|--15-14-15-18--15-14--17-15------------15-14--------|
F|------------------------------15-14-15--------------|
C|----------------------------------------------------|
G|------------------------------------------------0---|
C|------------------------------------------------0---|


Verse/Heavy Distortion
D|---------------------------------------------|
A|---------------------------------------------|
F|---------------------------------------------|
C|---------------------------------------------|
G|--55555544666666550-1-0--1-0000--1-0--1-000--|
C|--55555544666666550-1-0--1-0000--1-0--1-000--|

D|----------------------------------------|
A|----------------------------------------|
F|------------------------------22222222--|
C|------------------------------00000000--|
G|--55555544666666550-1-0--1-00000000000--|
C|--55555544666666550-1-0--1-00000000000--|

D|-------------------------------------------------------------------|
A|-------------------------------------------------------------------|
F|-------------------------------------------------------------------|
C|-------------------------------------------------------------------|
G|--555555555555444488888888888855554444444444447777555555555555555--|
C|--555555555555444488888888888855554444444444447777555555555555555--|

D|----------------------------------------------|
A|----------------------------------------------|
F|----------------------------------------------|
C|----------------------------------------------|
G|--11111100555555440--1-0--1-0000--1-0--1-000--|
C|--11111100555555440--1-0--1-0000--1-0--1-000--|

D|---------------------------------------------|
A|---------------------------------------------|
F|---------------------------------------------|
C|---------------------------------------------|
G|--55555544666666550-1-0--1-0000--1-0--1-000--|
C|--55555544666666550-1-0--1-0000--1-0--1-000--|

D|----------------------------------------|
A|----------------------------------------|
F|------------------------------22222222--|
C|------------------------------00000000--|
G|--55555544666666550-1-0--1-00000000000--|
C|--55555544666666550-1-0--1-00000000000--|

D|-------------------------------------------------------------------|
A|-------------------------------------------------------------------|
F|-------------------------------------------------------------------|
C|-------------------------------------------------------------------|
G|--555555555555444488888888888855554444444444447777555555555555555--|
C|--555555555555444488888888888855554444444444447777555555555555555--|

D|---------------------|
A|---------------------|
F|---------------------|
C|---------------------|
G|--11111100555555440--|
C|--11111100555555440--|


Bridge/Clean/Each Note Rings Out
D|----------------------------------------------------|
A|-----------------------------14-15-17-18-Hold Note--|
F|--14-14--14-14--15-15-14-16-------------------------|
C|----------------------------------------------------|
G|----------------------------------------------------|
C|----------------------------------------------------|

D|------------------------|
A|--17-15-14----15-15-----|
F|-----------14-----------|
C|--------------------12--|
G|------------------------|
C|------------------------|

The Following Notes Are Played Quickly Like Spanish Guitar
D|------------------------------------------------------------|
A|--15-14-15--15-14-15--15-14-15--18-17-15-13-12--------------|
F|-----------------------------------------------14-13-13-14--|
C|------------------------------------------------------------|
G|------------------------------------------------------------|
C|------------------------------------------------------------|

Slide Your Pick Across The String/Heavy Distortion
D|---------------------------------------------|
A|---------------------------------------------|
F|---------------------------------------------|
C|---------------------------------------------|
G|---------------------------------------------|
C|--0-------------------\-------------------0--|


Breakdown/Heavy Distortion
D|----------------------------------------------------------|
A|----------------------------------------------------------|
F|----------------------------------------------------------|
C|----------------------------------------------------------|
G|--555555555555555544445555666666555555551111111111111111--|
C|--555555555555555544445555666666555555551111111111111111--|


Slide Pick Across String Slightly At The End
D|--------------------------------------------|
A|--------------------------------------------|
F|--------------------------------------------|
C|--------------------------------------------|
G|--555555555555555544445555666666555555550/--|
C|--555555555555555544445555666666555555550/--|

Outro/Clean/The 0's At End Are Very Quietly Played
D|-----------18--------------------------------------|
A|--20-19-20----20-19---22-20----16-15-16--20-19-15--|
F|---------------------------------------------------|
C|---------------------------------------------------|
G|---------------------------------------------------|
C|---------------------------------------------------|

D|--------------14-15-17-18----18-17-15-14----15-15------|
A|--15---------15----------------------------------------|
F|-------------------------------------------------------|
C|--------------------------------------------------0----|
G|-------------------------------------------------------|
C|----------------------------------------------------0--|

                                                                -Quickstring
Добавлено: 12.06.2012
Другие материалы по этой песне:

Страница создана 12.03.2012
http://primanota.ru/fantomas/godfather-chords.htm
Привет, Гость.
Предлагаем пройти революционный курс по гитаре.
Подарок от PrimaNota.Ru, забирай!