PrimaNota.ru - самый крупный в мире бесплатный архив песенных текстов, аккордов, табулатур и нот


Fanny Crosby - To God Be The Glory - таба, видео

Регистрация Запомнить меня
Войти через:  Facebook Google Twitter Vk Yandex Mail.ru

Fanny Crosby - To God Be The Glory - таба, видео

Печатать
Просмотров: 100
Авторы музыки: William H. Doane
Авторы текста: Fanny Crosby
-------------------------------------------------------------------------------
                  to God be the glory - Fanny Crosby
-------------------------------------------------------------------------------
Tabbed by:
E-mail:
Key of G
Tuning:E-A-D-G-B-e

e|---------------------------------------------------------------------------|
B|--------------------------------------------0----0---1--------1----0-------|
G|----------------0------0-----2---------2------------------0--------------0-|
D|-0--0---2---4------0---0-----0-----0---0----0----0---0----2---0----0-----0-|
A|-2--2---3---3---2--2-------------------------------------------------------|
E|---------------------------------------------------------------------------|
   To God be the glory ,great things He hath done; so loved He the world that
e|---------------------------------------------------------------------------|
B|-0---0------------------------------------------------------0---0--3--1----|
G|---------2-------2-------------------0--------0-2-------2------------------|
D|-0-----------2---0----0--0--0-2--4--------0---0-0--0----0---0---4--2--2----|
A|-----4---3------------3--2----3--3---2----2--------------------------------|
E|---------------------------------------------------------------------------|
   He gave us his son, who yielded His life an atonement for sin and opened 
e|---------------------------------------------------------------------------|
B|--------------------0---0--------------------------------------------------|
G|---2--0--------0------------2---0------------------------------------------|
D|---2--0--4-----0----0---0--------------------------------------------------|
A|---------5------------------3---2------------------------------------------|
E|---------------------------------------------------------------------------|
    The lifegate that all may go in. 
e|---------------------------------------------------------------------------|
B|--------0-----1---3-----0-----1---3----3---0--------------0----------------|
G|------------------0---------------0----0-------0-----2--------2------2-----|
D|--------0-----0---------0-----0------------0---0-----0----0---0------0-----|
A|---------------------------------------------------------------------------|
E|---------------------------------------------------------------------------|
chorus: Praise the Lord praise the Lord let the earth hear his voice praise 
e|---------------------------------------------------------------------------|
B|---0---1-----------0----1---1------3--3----1--0----------------------------|
G|------------2-------------------2-------------------------------0----------|
D|---0---0----0------0----0---0---0--0--0----0--0---0--0---2---4-----0-------|
A|--------------------------------------------------2--2---3---3--2--2-------|
E|---------------------------------------------------------------------------|
    the Lord Praise the Lord let the people rejoice O come to the father 
e|---------------------------------------------------------------------------|
B|---------------------0---0---3----1-------------------0-----0--------------|
G|--0---------2----2--------------------2--0------0---------------2----0-----|
D|--0---------0-0--0---0---4---2----2---2--0--4---0-----0-----0--------------|
A|--------------------------------------------5-------------------3----2-----|
E|---------------------------------------------------------------------------|
    Through Jesus the Son and give Him the glory great things He has done 


************************************

| /   slide up
| \   slide down
| h   hammer-on
| p   pull-off
| ~   vibrato
| +   harmonic
| x   Mute note
| b   Bend
| pb  Pre-bend
| br  Bend release
| pbr Pre-bend release
| brb Bend release bend

************************************
Добавлено: 24.08.2015
Другие материалы по этой песне:
  • Аккорды и текст

Страница создана 24.08.2015
http://primanota.ru/fanny-crosby/to-god-be-glory-chords.htm
Привет, Гость.
Предлагаем пройти революционный курс по гитаре.
Подарок от PrimaNota.Ru, забирай!