PrimaNota.ru - самый крупный в мире бесплатный архив песенных текстов, аккордов, табулатур и нот


Fanny Crosby - Praise Him Praise Him - таба, видео

Регистрация Запомнить меня
Войти через:  Facebook Google Twitter Vk Yandex Mail.ru

Fanny Crosby - Praise Him Praise Him - таба, видео

Печатать
Просмотров: 47
-------------------------------------------------------------------------------
                     praise Him praise Him - Fanny Crosby
-------------------------------------------------------------------------------
Tabbed by:
E-mail:
key of G
Tuning:E-A-D-G-B-e

e|---------------------------------------------------------------------------|
B|--0-----3----------0------0------------------------0--3--------0----0------|
G|--------------0--------2-----2----0------------0-----------0-----------2--0|
D|--0-----0-----0----0---2--2--2----2-4-----2-0------0--0--------------------|
A|------------------------------------5-----3-2--2-----------2---2----4--3--3|
E|---------------------------------------------------------------------------|
  praise Him praise Him Jesus our blessed redeemer sing o earth His wonderful
e|---------------------------------------------------------------------------|
B|-------0--------0---3--------0------0-------------------------0--------3---|
G|--2-------2--------------0-------2--------2---0-----------0----------------|
D|----------0-----0---0----0---0---2--2-----2---2--4---2--0-----0--------3---|
A|--3----3-----------------------------------------5---3--2-2----------------|
E|---------------------------------------------------------------------------|
  love proclaim hail Him hail Him highest arch angels in glory strength and 
e|---------------------------------------------------------------------------|
B|-1-----------------0-------------0-----------1--0---------0---1----0-------|
G|---2----0-----0----0-2---0----2-----2---------------2------------------2---|
D|-2-2----0---4-0------3--------0--0--0--4--0--0--0---0-----0---0----0---0---|
A|------------5--------------------------------------------------------------|
E|---------------------------------------------------------------------------|
  honor give to His holy name like a shepherd Jesus will guard His children
e|---------------------------------------------------------------------------|
B|-0--3--------0---0---------------0-----------------------------------------|
G|---------0----------2----0---2--------2------------------------------------|
D|-0--0---------------------------------0------------------------------------|
A|---------2---2---4--3----3---3---3-----------------------------------------|
E|---------------------------------------------------------------------------|
  in His arms He carries them all day long 
e|-----------------------------------------------------------------------------|
B|--------0-----3----------0--------0---------------------------0-----3----1---|
G|--------------------0---------2------2---0--------------0--------------------|
D|--------0-----0-----0----0----2---2--2---2-4--2-----0---------0-----3----2---|
A|-------------------------------------------5--3-----2---2--------------------|
E|-----------------------------------------------------------------------------|
chorus: praise Him praise Him tell of His excellent greatness praise Him praise 
e|---------------------------------------------------------------------------|
B|-------------0-------------------------------------------------------------|
G|-2--0-----0--0--2----0-----------------------------------------------------|
D|-2--0-4---0-----3----0-----------------------------------------------------|
A|------5--------------------------------------------------------------------|
E|---------------------------------------------------------------------------|
  Him ever in joyful song


************************************

| /   slide up
| \   slide down
| h   hammer-on
| p   pull-off
| ~   vibrato
| +   harmonic
| x   Mute note
| b   Bend
| pb  Pre-bend
| br  Bend release
| pbr Pre-bend release
| brb Bend release bend

************************************
Добавлено: 21.05.2016
Другие материалы по этой песне:
  • Аккорды и текст

Страница создана 21.05.2016
http://primanota.ru/fanny-crosby/praise-him-praise-him-chords.htm
Привет, Гость.
Предлагаем пройти революционный курс по гитаре.
Подарок от PrimaNota.Ru, забирай!