PrimaNota.ru - самый крупный в мире бесплатный архив песенных текстов, аккордов, табулатур и нот


Fanny Crosby - Jesus Keep Me Near The Cross - таба, видео

Регистрация Запомнить меня
Войти через:  Facebook Google Twitter Vk Yandex Mail.ru

Fanny Crosby - Jesus Keep Me Near The Cross - таба, видео

Печатать
Просмотров: 51
-------------------------------------------------------------------------------
            Jesus keep me near the cross - Fanny Crosby 
-------------------------------------------------------------------------------
Tabbed by:
E-mail:
key of F
Tuning:E-A-D-G-B-e

e|----------------------------------------------------------------------------|
B|----------------------------------------------------------------------------|
G|-2-3----2---0------------------------------2----2--0-----2---3--2--0--------|
D|-3-3----3---2--3----0----0---------3---3---3----3--2-----3---3--3--2---3--0-|
A|---------------5---------1-----3---3-----------------------------------5----|
E|----------------------------------------------------------------------------|
  Jesus keep me near the cross there a precious fountain free to all a healing
e|---------------------------------------------------------------------------|
B|---------------------------------------------------------------------------|
G|----------------------------0----------------------------------------------|
D|--0------------3----3--2-------3-------------------------------------------|
A|---------3-----3----3--3----3--3-------------------------------------------|
E|---------5-----------------------------------------------------------------|
  stream flows from calvary mountain 
e|----------------------------------------------------------------------------|
B|----------1----1-------3----3----1--3---1-----------------------------------|
G|-------2------------3--3----3----2--3---2-2--2-0---2---3---2--0-----3-------|
D|-------3--3----3----3---------------------3--3-2-------0------------5----0--|
A|---------------------------------------------------3-------3--4----------1--|
E|----------------------------------------------------------------------------|
Chorus: in the cross in the cross be my glory ever till my ransomed soul shall
e|---------------------------------------------------------------------------|
B|---------------------------------------------------------------------------|
G|----------------------0----------------------------------------------------|
D|-0---------3--3---2------3-------------------------------------------------|
A|-1----3----3--3---3---3--3-------------------------------------------------|
E|------5--------------------------------------------------------------------|
  find rest beyond the river

verse 2
near the cross a trembling soul love and mercy found me 
there the bright and morning star shed his beams around me 
 

************************************

| /   slide up
| \   slide down
| h   hammer-on
| p   pull-off
| ~   vibrato
| +   harmonic
| x   Mute note
| b   Bend
| pb  Pre-bend
| br  Bend release
| pbr Pre-bend release
| brb Bend release bend

************************************
Добавлено: 21.05.2016
Вам также может быть интересно:
Другие материалы по этой песне:
  • Аккорды и текст

Страница создана 21.05.2016
http://primanota.ru/fanny-crosby/jesus-keep-me-near-cross-chords.htm
Привет, Гость.
Предлагаем пройти революционный курс по гитаре.
Подарок от PrimaNota.Ru, забирай!