PrimaNota.ru - самый крупный в мире бесплатный архив песенных текстов, аккордов, табулатур и нот


Fanny Crosby - Jesus Is Tenderly Calling - таба, видео

Регистрация Запомнить меня
Войти через:  Facebook Google Twitter Vk Yandex Mail.ru

Fanny Crosby - Jesus Is Tenderly Calling - таба, видео

Печатать
Просмотров: 97
-------------------------------------------------------------------------------
                  Jesus is tenderly calling - Fanny Crosby
-------------------------------------------------------------------------------
Tabbed by:
E-mail:
Key of Bb
Tuning:E-A-D-G-B-e

e|---------------------------------------------------------------------------|
B|---------------------------------------------------------------------------|
G|----------------------0------2---3----3--2----0--2--0----------------------|
D|--3-3--3---3--0--1--3-1------1---0----1--1----1--1--1--3---1---3---3----3--|
A|--5-5--5---5--1--3--5----------------------------------5-------5---5----5--|
E|---------------------------------------------------------------------------|
   Jesus is tenderly calling thee home calling today calling to day why from 
e|---------------------------------------------------------------------------|
B|------------------------------------------------1--------------------------|
G|-----------------------0----2---3----2-------2-----3----0------------------|
D|--3---3--0----1----3---1----1---0------0--------1--1----1--3---------------|
A|--5---5--1----3----5-----------------3-3-----3-----------------------------|
E|---------------------------------------------------------------------------|
   the sunshine of love wilt you roam farther and farther away
e|---------------------------------------------------------------------------|
B|----------------------1-------------3--1-----3-----------------------------|
G|-------3--2---0---2-------3---2--3-------3---2---2--0----------------0-----|
D|-------0--0---0---1---1---0------0--3--1-0-------3--1---3--3--3--3---1-----|
A|------------------------------3-------------------------5--5--5------------|
E|---------------------------------------------------------------------------|
chorus: calling to day calling today Jesus is calling is tenderly calling 
e|---------------------------------------------------------------------------|
B|-----3---------------------------------------------------------------------|
G|--2------------------------------------------------------------------------|
D|--3--3---------------------------------------------------------------------|
A|---------------------------------------------------------------------------|
E|---------------------------------------------------------------------------|
   to day



************************************

| /   slide up
| \   slide down
| h   hammer-on
| p   pull-off
| ~   vibrato
| +   harmonic
| x   Mute note
| b   Bend
| pb  Pre-bend
| br  Bend release
| pbr Pre-bend release
| brb Bend release bend

************************************
Добавлено: 24.08.2015
Другие материалы по этой песне:
  • Аккорды и текст

Страница создана 24.08.2015
http://primanota.ru/fanny-crosby/jesus-is-tenderly-calling-chords.htm
Привет, Гость.
Предлагаем пройти революционный курс по гитаре.
Подарок от PrimaNota.Ru, забирай!