PrimaNota.ru - самый крупный в мире бесплатный архив песенных текстов, аккордов, табулатур и нот


Fang - With Friends Like You - бас-таба, видео

Регистрация Запомнить меня
Войти через:  Facebook Google Twitter Vk Yandex Mail.ru

Fang - With Friends Like You - бас-таба, видео

Печатать
Просмотров: 108
Chorus
G--------------------------------------------------------------------------------|
D-4-4-4---------------4-4-4---------------4-4-4---------------4-4-4--------------|
A-------4--4-4-3-2-1--------4--4-4-3-2-1--------4--4-4-3-2-1--------4--4-4-3-2-1-|
E--------------------------------------------------------------------------------|


Verse 
G-----------------|-----------------|-----------------|-----------------|
D-----------------|-----------------|-----------------|-----------------|
A-5-5-5-5-5-------|-5-5-5-5-5-------|-5-5-5-5-5-------|-5-5-5-5-5-------|
E-----------------|-----------------|-----------------|-----------------|


Bridge
G-------------------------------------------------------------------------|
D-------------------------------------------------------------------------|
A-------------------------------------------------------------------------|
E-1-1-1-1--3-3-3-3--1-1-1-1--3-3-3-3--1-1-1-1--3-3-3-3--1-1-1-1--0--------|


Listen for order 
Добавлено: 07.07.2015
Другие материалы по этой песне:
  • Аккорды и текст

Страница создана 07.07.2015
http://primanota.ru/fang/with-friends-like-you-chords.htm
Привет, Гость.
Предлагаем пройти революционный курс по гитаре.
Подарок от PrimaNota.Ru, забирай!