PrimaNota.ru - самый крупный в мире бесплатный архив песенных текстов, аккордов, табулатур и нот


Fang - The Money Will Roll Right In - текст песни, бас-таба, видео

Регистрация Запомнить меня
Войти через:  Facebook Google Twitter Vk Yandex Mail.ru

Fang - The Money Will Roll Right In - текст песни, бас-таба, видео

Печатать
Просмотров: 201
Авторы: Tom Flynn, Chris Wilson

Intro/Outro
G--------------------|
D--------------------|
A--------------------|
E-3-3-3-3--2-2--1-1--|


Verse
G-----------------|
D-----------------|
A-----------------|
E-0-0-0-0-0-1-2-3-|


Chorus
G------------------------------------|
D------------------------------------|
A------------------------------------|
E-1-1-1-1-1-1-1-1--3-3-3-3--2-2--1-1-|


Solo
G----------------------------|
D----------------------------|
A-5-5--2-2-2-----------------|
E------------0-0-0-0-0-1-2-3-|


Nothing to it, just listen for the order
Добавлено: 07.07.2015
Другие материалы по этой песне:
  • Аккорды и текст

Страница создана 02.06.2012
http://primanota.ru/fang/the-money-will-roll-right-in-chords.htm
Привет, Гость.
Предлагаем пройти революционный курс по гитаре.
Подарок от PrimaNota.Ru, забирай!