PrimaNota.ru - самый крупный в мире бесплатный архив песенных текстов, аккордов, табулатур и нот


Fang - Skinheads Smoke Dope - текст песни, таба, видео

Регистрация Запомнить меня
Войти через:  Facebook Google Twitter Vk Yandex Mail.ru

Fang - Skinheads Smoke Dope - текст песни, таба, видео

Печатать
Просмотров: 212
-------------------------------------------------------------------------------
Skinheads Smoke Dope - Fang
Landshark/Where The Wild Things Are
-------------------------------------------------------------------------------
Tabbed by: axeslash
Email: holmzito@yahoo.com

Tuning: Standard

e|---------------------------------------------|
B|---------------------------------------------|
G|------------------------5-5-5----------------|
D|-5-5-5----4-4-4----7-8--5-5-5----------------|
A|-5-5-5----4-4-4----7-8--3-3-3----------------|
E|-3-3-3----2-2-2----5-6-----------------------| x2

e|-----------------------------------------------------------------|
B|-----------------------------------------------------------------|
G|-----------------------------3-3-5-5-5-5-5-5-5-5-5-5-5-5-5-5-5-5-|
D|-5-5-5-5-5-5-5-5-4-4-4-4-4-4-3-3-5-5-5-5-5-5-5-5-5-5-5-5-5-5-5-5-|
A|-5-5-5-5-5-5-5-5-4-4-4-4-4-4-1-1-3-3-3-3-3-3-3-3-3-3-3-3-3-3-3-3-|
E|-3-3-3-3-3-3-3-3-2-2-2-2-2-2-------------------------------------|

e|------------------------------------------------------------|
B|------------------------------------------------------------|
G|-----------------------------3-3-5-5-5-5-5-5-5-5-5-5-5-5-5/-|
D|-5-5-5-5-5-5-5-5-4-4-4-4-4-4-3-3-5-5-5-5-5-5-5-5-5-5-5-5-5/-|
A|-5-5-5-5-5-5-5-5-4-4-4-4-4-4-1-1-3-3-3-3-3-3-3-3-3-3-3-3-3/-|
E|-3-3-3-3-3-3-3-3-2-2-2-2-2-2--------------------------------|

e|-------------------------------------------------------------|
B|-------------------------------------------------5^----------|
G|-----------------------------3-3-5-5-5-5-5-5-5-5-5^-5-5-5-5--|
D|-5-5-5-5-5-5-5-5-4-4-4-4-4-4-3-3-5-5-5-5-5-5-5-5----5-5-5-5/-|
A|-5-5-5-5-5-5-5-5-4-4-4-4-4-4-1-1-3-3-3-3-3-3-3-3----3-3-3-3/-|
E|-3-3-3-3-3-3-3-3-2-2-2-2-2-2---------------------------------|

e|-----------------------------------------------------------------|
B|-----------------------------------------------------------------|
G|-----------------------------3-3-5-5-5-5-5-5-5-5-5-5-5-5-5-5-5-5-|
D|-5-5-5-5-5-5-5-5-4-4-4-4-4-4-3-3-5-5-5-5-5-5-5-5-5-5-5-5-5-5-5-5-|
A|-5-5-5-5-5-5-5-5-4-4-4-4-4-4-1-1-3-3-3-3-3-3-3-3-3-3-3-3-3-3-3-3-|
E|-3-3-3-3-3-3-3-3-2-2-2-2-2-2-------------------------------------|

e|------------------------------|
B|------------------------------|
G|-9-9-9-9-9-9-9-9-6-8----------|
D|-9-9-9-9-9-9-9-9-6/8-8--8-8-8-|
A|-7-7-7-7-7-7-7-7-4/6-8--8-8-8-|
E|---------------------6--6-6-6-| x4

e|---------------------------------------------------------|
B|---------------------------------------------------------|
G|----0------0-----0------3-3-5-5-5-5-4/5-5-5-5-5-5-5-5-5/-|
D|----0------0-----0------3-3-5-5-5-5-4/5-5-5-5-5-5-5-5-5/-|
A|-5-----5-5----4-----4-4-1-1-3-3-3-3-2/3-3-3-3-3-3-3-3-3/-|
E|-3-----3-3----2-----2-2----------------------------------|

e|--------------------------------------------------------|
B|--------------------------------------------5^--3-3-3/--|
G|----0------0-----0------3-3-5-5-5-5-5-5-5-5-5^--3-3-3/--|
D|----0------0-----0------3-3-5-5-5-5-5-5-5-5-------------|
A|-5-----5-5----4-----4-4-1-1-3-3-3-3-3-3-3-3-------------|
E|-3-----3-3----2-----2-2---------------------------------|

e|-------------------------------------------------------|
B|-------------------------------------------------------|
G|----0------0-----0------3-3-5-5-5-5-5-5-5-5-5-5-5-5-5/-|
D|----0------0-----0------3-3-5-5-5-5-5-5-5-5-5-5-5-5-5/-|
A|-5-----5-5----4-----4-4-1-1-3-3-3-3-3-3-3-3-3-3-3-3-3/-|
E|-3-----3-3----2-----2-2--------------------------------|

e|-----------------------------------------------------------------|
B|-----------------------------------------------------------------|
G|-----------------------------3-3-5-5-5-5-5-5-5-5-5-5-5-5-5-5-5-5-|
D|-5-5-5-5-5-5-5-5-4-4-4-4-4-4-3-3-5-5-5-5-5-5-5-5-5-5-5-5-5-5-5-5-|
A|-5-5-5-5-5-5-5-5-4-4-4-4-4-4-1-1-3-3-3-3-3-3-3-3-3-3-3-3-3-3-3-3-|
E|-3-3-3-3-3-3-3-3-2-2-2-2-2-2-------------------------------------|

e|----------------------------|
B|----------------------------|
G|-9-9-9-9-9-9-9-9-6-8-5^~----|
D|-9-9-9-9-9-9-9-9-6/8--------|
A|-7-7-7-7-7-7-7-7-4/6--------|
E|----------------------------| x4

e|---------------------------------------------------------|
B|---------------------------------------------------------|
G|----0------0-----0------3-3-5-5-5-5-4/5-5-5-5-5-5-5-5-5/-|
D|----0------0-----0------3-3-5-5-5-5-4/5-5-5-5-5-5-5-5-5/-|
A|-5-----5-5----4-----4-4-1-1-3-3-3-3-2/3-3-3-3-3-3-3-3-3/-|
E|-3-----3-3----2-----2-2----------------------------------|

e|---------------------------------------------------|
B|---------------------------------------------5^----|
G|----0------0-----0------3-3-5-5-5-5-5-5-5-5--5^----|
D|----0------0-----0------3-3-5-5-5-5-5-5-5-5--------|
A|-5-----5-5----4-----4-4-1-1-3-3-3-3-3-3-3-3--------|
E|-3-----3-3----2-----2-2----------------------------|

e|---------------------------------------------------------|
B|---------------------------------------------5--5^--3----|
G|----0------0-----0------3-3-5-5-5-5-5-5-5-5--5--5^--3----|
D|----0------0-----0------3-3-5-5-5-5-5-5-5-5--------------|
A|-5-----5-5----4-----4-4-1-1-3-3-3-3-3-3-3-3--------------|
E|-3-----3-3----2-----2-2----------------------------------|

e|----------------------------------------------------------------------------|
B|--------------------------------------------5-5-----------------------------|
G|----0------0-----0------3-3-5-5-5-5-5-5-5-5-5-5-5-5-5--5-5-5----------------|
D|----0------0-----0------3-3-5-5-5-5-5-5-5-5-----5-5-5--5-5-5----------------|
A|-5-----5-5----4-----4-4-1-1-3-3-3-3-3-3-3-3-----3-3-3--3-3-3----------------|
E|-3-----3-3----2-----2-2-----------------------------------------------------|


| ^  note bend
| /  slide up
| \  slide down
| h  hammer-on
| p  pull-off
| ~  vibrato
| +  harmonic
| x  Mute note
===============================================================================
Добавлено: 27.05.2012
Другие материалы по этой песне:
  • Аккорды и текст

Страница создана 03.05.2012
http://primanota.ru/fang/skinheads-smoke-dope-chords.htm
Привет, Гость.
Предлагаем пройти революционный курс по гитаре.
Подарок от PrimaNota.Ru, забирай!