PrimaNota.ru - самый крупный в мире бесплатный архив песенных текстов, аккордов, табулатур и нот


Fang - Landshark - текст песни, бас-таба, видео

Регистрация Запомнить меня
Войти через:  Facebook Google Twitter Vk Yandex Mail.ru

Fang - Landshark - текст песни, бас-таба, видео

Печатать
Просмотров: 229
Verse
G-----------------------------------------------------------------------------------------|
D-----------------------------------------------------------------------------------------|
A-4-4-4-4-2-2-2-2-4-----4-4-4-4-2-2-2-2-4-----4-4-4-4-2-2-2-2-4-----4-4-4-4-2-2-2-2-4-----|
E-----------------------------------------------------------------------------------------|


Chorus
G----------------------------------------------------------------|
D----------------------------------------------------------------|
A-0--4--2--2-2-2---------4-4-4-4--0--4--2--2-2-2---------4-------|
E----------------2-2-2-2-------------------------2-2-2-2---------|

G----------------------------------------------------------------|
D----------------------------------------------------------------|
A-0--4--2--2-2-2---------4-4-4-4--0--4--2--2-2-2-4-4-4-4-4-------|
E----------------2-2-2-2-----------------------------------------|



Order:
Verse              x1
Chorus             x1
Verse              x1
Chorus             x1
Verse              x1
Chorus             x1
1st bar of verse   x1
Добавлено: 05.03.2015
Другие материалы по этой песне:
  • Аккорды и текст

Страница создана 24.05.2012
http://primanota.ru/fang/landshark-chords.htm
Привет, Гость.
Предлагаем пройти революционный курс по гитаре.
Подарок от PrimaNota.Ru, забирай!