PrimaNota.ru - самый крупный в мире бесплатный архив песенных текстов, аккордов, табулатур и нот


Family Thief - Jack And Coke - аккорды и текст, видео

Регистрация Запомнить меня
Войти через:  Facebook Google Twitter Vk Yandex Mail.ru

Family Thief - Jack And Coke - аккорды и текст, видео

Печатать
Просмотров: 92
Уроки эстрадного вокала в Санкт-Петербурге
Jack And Coke
Family Thief
-------------------------------------------------------------------------------
                             Jack and Coke - Family Thief
-------------------------------------------------------------------------------
https://www.facebook.com/FamilyThief

Tabbed by: Chris Salazar 
E-mail: chris_jsalazar@yahoo.com

tuning: standard (capo 2)

intro:
         Cadd9             
e|-------0-----0--0-0000----------------|
B|---------3---3--3-3333----------------|
G|-----------0-0--0-0000----------------| 2x
D|-------------2--2-2222----------------|
A|-2/3---------3--3-3333----------------|
E|-------------x--x-xxxx----------------|


         Cadd9                  Asus2  G
e|-------0-----0--0-0000---0-000--3--3-3333--------|
B|---------3---3--3-3333---0-000--3--3-3333--------|
G|-----------0-0--0-0000---2-222--0--0-0000--------| 
D|-------------2--2-2222---2-222--0--0-0000--------|
A|-2/3---------3--3-3333---2-222--2--2-2222--------|
E|-------------x--x-xxxx---0-000--3--3-3333--------|
                               ^p.m

verse progression: G - Cadd9 - G - Cadd9 - G - Cadd9 - Asus2 - G 3x
Chorus: G - Cadd9 4x
bridge: Cadd9 - GM9 - G - Cadd9 - G - Cadd9 2x



   G        Cadd9   G       Cadd9       G         Cadd9
If I don't get want I deserve I'm gonna burn this house

Asus2  G
to the ground,

G         Cadd9      G       Cadd9
watch the flames eat everything.

      G        Cadd9    Asus2 G
Every ghost of mine and every demon.

G       Cadd9 G       Cadd9             G        Cadd9       Asus2   G
Jack and coke matches please, i'm gonna erase my thoughts of everything.

G           Cadd9     G                Cadd9
Singing Que sera sera whatever will be will be

G                       Cadd9      G       Cadd9
lonely moon you've been saving up, for what now?

(Play intro part)

   G       Cadd9    G       Cadd9       G       Cadd9 Asus2     G
If I don't get want I deserve I'm gonna hang my head  below the rafters.

G        Cadd9 G         Cadd9       G         Cadd9          Asus2    G
watch my heels dance for space as my eyes roll back  I see my mother's face.

     G   Cadd9   G    Cadd9    G             Cadd9   Asus2      G
She says babe I  love you come down from the ceiling descend to hell.

G       Cadd9    G             Cadd9
Que sera sera whatever will be will be

G                       Cadd9      G       Cadd9
lonely moon you've been saving up, for what now?


Cadd9           GM9                G     Cadd9  G Cadd9
Change my name, burn my clothes and start again.

Cadd9           GM9                G     Cadd9  G Cadd9
Change my name, burn my clothes and start again.


G       Cadd9    G             Cadd9
Que sera sera whatever will be will be

G                       Cadd9      G       Cadd9
lonely moon you've been saving up, for what now?

(intro part) - end
Добавлено: 29.12.2015
Другие материалы по этой песне:
  • Аккорды и текст

Страница создана 29.12.2015
http://primanota.ru/family-thief/jack-and-coke-chords.htm
Привет, Гость.
Предлагаем пройти революционный курс по гитаре.
Подарок от PrimaNota.Ru, забирай!