PrimaNota.ru - самый крупный в мире бесплатный архив песенных текстов, аккордов, табулатур и нот


The Family Ruin - Lets Go - таба, видео

Регистрация Запомнить меня
Войти через:  Facebook Google Twitter Vk Yandex Mail.ru

The Family Ruin - Lets Go - таба, видео

Печатать
Просмотров: 59
-------------------------------------------------------------------------------
                SONG NAME: Let's Go - Band Name: The Family Ruin
-------------------------------------------------------------------------------
Tabbed by: Carolyn
E-mail:

Tuning: CGCFAD

Intro:
D|-------------------0------|-----------------------0--------------------------|
A|--------------6-----------|-----------------6--------------------------------|
F|-----5---7--------------X2|-----5-----7--------------------------------------|
C|---0---0----0----0--------|--7-----7-----7-----7-----------------------------|
G|---x---x----x----x--------|--x-----x-----x-----x-----------------------------|
C|--------------------------|--------------------------------------------------|

D|---------------------------------------------------------------------------|
A|---------------------------------------------------------------------------|
F|------2----3-3-3-3-3-3-3-3-------------------------------------------------|
C|----3------3-3-3-3-3-3-3-3-------------------------------------------------|
G|--1--------1-1-1-1-1-1-1-1-------------------------------------------------|
C|---------------------------------------------------------------------------|

************************************
PM (palm mute)- x
************************************
Добавлено: 28.11.2015
Другие материалы по этой песне:
  • Аккорды и текст

Страница создана 28.11.2015
http://primanota.ru/family-ruin/lets-go-chords.htm
Привет, Гость.
Предлагаем пройти революционный курс по гитаре.
Подарок от PrimaNota.Ru, забирай!