PrimaNota.ru - самый крупный в мире бесплатный архив песенных текстов, аккордов, табулатур и нот


Family Of The Year - Hey Kid - таба, видео

Регистрация Запомнить меня
Войти через:  Facebook Google Twitter Vk Yandex Mail.ru

Family Of The Year - Hey Kid - таба, видео

Печатать
Просмотров: 52
Уроки эстрадного вокала в Санкт-Петербурге
Artist: Family of the Year
Song: Hey Kid
Album: Family of the Year (2015)

Notes:
This tab is the closest I could get to the original record.
You don't actually need to play exactly this way,
you should feel free to play the way you think that sounds better.
If you just follow a similar pattern in these chords you can sound
pretty much like the recording.
It is even possible to use more simple shapes of the same
chords to play the same notes, it is all about you.

I play this without a capo, but you can use it on the second fret.

This song is in the key of A.

"PM" stands for "Palm Mute".

Guitar I - Intro & verse

 (D)                        (F#m)
e|--------2-----2--2--------|--------5--------5--------|
B|--------------------------|--------------2-----------|
G|-----------2--------2-----|-----2-----2--------2-----|
D|-----4-----------------2--|--4--------------------2--|
A|--5-----------------------|--------------------------|
E|--------------------------|--------------------------|


 (A6/C#)                    (D)
e|--------------2-----------|--------2-----2--2--------|
B|--------5--------5--------|--------------------------|
G|--------------------2-----|-----------2--------2-----|
D|-----2-----2-----------2--|-----4-----------------4--|
A|--4-----------------------|--5-----------------------|
E|--------------------------|--------------------------|


Guitar I - Bridge

 (E)                        (F#m)
e|--------4-----4-----------|--------5--------5--------|
B|-----------------5--------|--------------2-----------|
G|--------------------2-----|-----2-----2--------2-----|
D|-----6-----6-----------2--|--4--------------------2--|
A|--7-----------------------|--------------------------|
E|--------------------------|--------------------------|


 (A6/C#)                    (D)
e|--------------2-----------|--------2-----2--2--------|
B|--------5--------5--------|--------------------------|
G|--------------------2-----|-----------2--------2-----|
D|-----2-----2-----------2--|-----4-----------------4--|
A|--4-----------------------|--5-----------------------|
E|--------------------------|--------------------------|


 (E)                        (F#m)
e|--------4-----4-----------|--------5--------5--------|
B|-----------------5--------|--------------2-----------|
G|--------------------2-----|-----2-----2--------2-----|
D|-----6-----6-----------2--|--4--------------------2--|
A|--7-----------------------|--------------------------|
E|--------------------------|--------------------------|


 (A)                        (E)
e|--------5-----5-----------|--------4-----4-----------|
B|-----------------5--------|-----------------5--------|
G|-----6-----6--------6-----|--------------------2-----|
D|--7--------------------7--|-----6-----6-----------2--|
A|--------------------------|--7-----------------------|
E|--------------------------|--------------------------|





Guitar II - Verse

This comes in when the verse is played for the second time.
 (D5)                       (F#5)
e|--------------------------|--------------------------------|
B|--------------------------|--------------------------------|
G|--------7-----------7-----|---------11-------------11------|
D|-----7-----7-----7-----7--|-----11------11-----11------11--|
A|--5-----------5-----------|--9--------------9--------------|
E|--------------------------|--------------------------------|
    PM PM PM PM PM PM PM PM    PM PM  PM  PM  PM PM  PM  PM


 (E5)                       (D5)
e|--------------------------|--------------------------|
B|--------------------------|--------------------------|
G|--------9-----------9-----|--------7-----------7-----|
D|-----9-----9-----9-----9--|-----7-----7-----7-----7--|
A|--7-----------7-----------|--5-----------5-----------|
E|--------------------------|--------------------------|
    PM PM PM PM PM PM PM PM    PM PM PM PM PM PM PM PM


Guitar II - Bridge
Note: I don't really know if these notes on the G string are actually played,
but it is a good idea to include them.

e|-------------------|---------------------------|
B|----9---9---9---9--|-----10----10----10----10--|
G|--9---9---9---9----|--11----11----11----11-----|
D|-------------------|---------------------------|
A|-------------------|---------------------------|
E|-------------------|---------------------------|

e|-------------------|-------------------|
B|----9---9---9---9--|----7---7---7---7--|
G|--9---9---9---9----|--7---7---7---7----|
D|-------------------|-------------------|
A|-------------------|-------------------|
E|-------------------|-------------------|

e|-------------------|---------------------------|
B|----9---9---9---9--|-----10----10----10----10--|
G|--9---9---9---9----|--11----11----11----11-----|
D|-------------------|---------------------------|
A|-------------------|---------------------------|
E|-------------------|---------------------------|

e|-------------------|---------------------|
B|----5---5---5---5--|----9---9---9---9\7--|
G|--6---6---6---6----|--9---9---9---9------|
D|-------------------|---------------------|
A|-------------------|---------------------|
E|-------------------|---------------------|

That part when the synthetizer goes in:
e|--------------------------|
B|--------------------------|
G|--------------------------|
D|----------4/11\4----------|
A|--------------------------|
E|--------------------------|
Добавлено: 11.05.2016
Другие материалы по этой песне:
  • Аккорды и текст

Страница создана 11.05.2016
http://primanota.ru/family-of-the-year/hey-kid-chords.htm
Привет, Гость.
Предлагаем пройти революционный курс по гитаре.
Подарок от PrimaNota.Ru, забирай!