PrimaNota.ru - самый крупный в мире бесплатный архив песенных текстов, аккордов, табулатур и нот


Family Force 5 - Wobble - таба, видео

Регистрация Запомнить меня
Войти через:  Facebook Google Twitter Vk Yandex Mail.ru

Family Force 5 - Wobble - таба, видео

Печатать
Просмотров: 123
Уроки эстрадного вокала в Санкт-Петербурге
-------------------------------------------------------------------------------
                             Wobble - Family Force 5
-------------------------------------------------------------------------------
Tabbed by:
E-mail:

Tuning: standard

 intro, verse, chorus(Rhythm) played through out the song
e|---------------------------------------------------------------------------|
B|---------------------------------------------------------------------------|
G|-7--7-7---10-10--7---------------------------------------------------------|
D|-7--7-7---10-10--7---------------------------------------------------------|
A|-5--5-5---8b-8b--5---------------------------------------------------------|
E|---------------------------------------------------------------------------|

chorus (lead)
e|7-7-7-7-7-7-7h9-7-7-7-7-7-7h9-7-7h9-7-7-7-7-7-7h9-7-7h9-7-7-7-7-7-11-11-11-9-7--|
B|--------------------------------------------------------------------------------|
G|--------------------------------------------------------------------------------|
D|--------------------------------------------------------------------------------|
A|--------------------------------------------------------------------------------|
E|--------------------------------------------------------------------------------|

this is pretty much the entire song there was no tab for it and its my first don't be too harsh

************************************

| /   slide up
| \   slide down
| h   hammer-on
| p   pull-off
| ~   vibrato
| +   harmonic
| x   Mute note
| b   Bend
| pb  Pre-bend
| br  Bend release
| pbr Pre-bend release
| brb Bend release bend

************************************
Добавлено: 31.10.2015
Другие материалы по этой песне:
  • Аккорды и текст

Страница создана 31.10.2015
http://primanota.ru/family-force-5/wobble-chords.htm
Привет, Гость.
Предлагаем пройти революционный курс по гитаре.
Подарок от PrimaNota.Ru, забирай!