PrimaNota.ru - самый крупный в мире бесплатный архив песенных текстов, аккордов, табулатур и нот


Family Force 5 - Never Let Me Go - текст песни, таба, бас-таба, видео

Регистрация Запомнить меня
Войти через:  Facebook Google Twitter Vk Yandex Mail.ru

Family Force 5 - Never Let Me Go - текст песни, таба, бас-таба, видео

Печатать
Просмотров: 162
ok this should be right... i played it a couple times and it sounded good so here ya go xD

drop c (CGCDAF)

key:
/ = slide up
h = hammer


pre chorus: (ps this is played in the background...)

D |------------|
A |------------|
F |------------|     x8
C |7-7-7/8-----|
G |7-7-7/8-----|
C |7-7-7/8-----|


chorus:
D |----------------------------------------------------------|
A |----------------------------------------------------------|
F |----------------------------------------------------------|   x2
C |5-0-5-7-7-8--5-0-5-7-7-8--5-0-5-7-7-8--5-0-5-8-8-8-8-8-8-7|
G |5-0-5-7-7-8--5-0-5-7-7-8--5-0-5-7-7-8--5-0-5-8-8-8-8-8-8-7|
C |5-0-5-7-7-8--5-0-5-7-7-8--5-0-5-7-7-8--5-0-5-8-8-8-8-8-8-7|

post chorus:

D |---------------------------------------------------------|
A |---------------------------------------------------------|
F |---------------------------------------------------------|
C |8/10-10-10-11h-8-5-5-5-6h-5-5--8/10-10-10-11-8-5-5-5-6h-5|
G |8/10-10-10-11h-8-5-5-5-6h-5-5--8/10-10-10-11-8-5-5-5-6h-5|
C |8/10-10-10-11h-8-5-5-5-6h-5-5--8/10-10-10-11-8-5-5-5-6h-5|

2nd verse: same as prechorus

repeat chorus

bridge:

D |----------------------------------------------------------------------|
A |----------------------------------------------------------------------|
F |----------------------------------------------------------------------|
C |0-0-0-0-0-0-0-0-0-0-0-0-0--5-5-5-5--1-1-1-1--5-5-5-5--1-1-1-1--5-5-5-5|
G |0-0-0-0-0-0-0-0-0-0-0-0-0--5-5-5-5--1-1-1-1--5-5-5-5--1-1-1-1--5-5-5-5|
C |0-0-0-0-0-0-0-0-0-0-0-0-0--5-5-5-5--1-1-1-1--5-5-5-5--1-1-1-1--5-5-5-5|

D |-----------------------------------------------|
A |-----------------------------------------------|
F |-----------------------------------------------|
C |1-1-1-1--5-5-5-5--2-2-2-2-2-2-2-2-5-5-5-5-7-7-8|
G |1-1-1-1--5-5-5-5--2-2-2-2-2-2-2-2-5-5-5-5-7-7-8|
C |1-1-1-1--5-5-5-5--2-2-2-2-2-2-2-2-5-5-5-5-7-7-8|

chorus 2x

well, there ya go(: this is my first tab, so there might be some mistakes but im pretty 
that this is 99.9% right. feel free to comment and rate xD
Добавлено: 23.10.2013
Другие материалы по этой песне:
  • Аккорды и текст

Страница создана 27.04.2012
http://primanota.ru/family-force-5/never-let-me-go-chords.htm
Привет, Гость.
Предлагаем пройти революционный курс по гитаре.
Подарок от PrimaNota.Ru, забирай!