PrimaNota.ru - самый крупный в мире бесплатный архив песенных текстов, аккордов, табулатур и нот


Family Force 5 - Kountry Gentleman - текст песни, таба, бас-таба, видео

Регистрация Запомнить меня
Войти через:  Facebook Google Twitter Vk Yandex Mail.ru

Family Force 5 - Kountry Gentleman - текст песни, таба, бас-таба, видео

Печатать
Просмотров: 108
Wait a few seconds before starting.                 

|---------------------|           
|---------------------|           
|---------------------|  x4   
|---------------------|           
|---------------------|           
|---222223-02222230---|           



Do this one time.

|---------------------------------------------------|
|---------------------------------------------------|
|---------------------------------------------------|  x1
|---------------------------------------------------|
|---57---------57---------57------------------------|
|-----6700220----6700220----67002020--60-20-60-20---|



                                                    

|------------------------------|          |-------------------------|
|------------------------------|          |-------------------------|
|------------------------------|  x3      |-------------------------|  x1
|------------------------------|          |-------------------------|
|------------------------------|          |-------------------------|
|---0222-0202320--0222-0202335-|          |---0222-0202320--7\5\9\0-|




|-------------------------------------------------|
|-------------------------------------------------|
|-------------------------------------------------|  x2
|-------------------------------------------------|
|---57---------57---------57----------------------|
|-----6700220----6700220----67002020--60-20-60-20-|





|--------------------------------------------|
|--------------------------------------------|
|--------------------------------------------|  x1
|--------------------------------------------|
|--------------------------------------------|
|---0222-0202320--0222-0202335--0222-0202320-|


Do nothing for about 4 sec.

|-----------------|
|-----------------|
|-----------------|
|-----------------|
|-----------------|
|-----------------|


     wait 3 sec between each note.

|-------------------------------------------------------------------|
|-------------------------------------------------------------------|
|-------------------------------------------------------------------|
|-------------------------------------------------------------------|
|-------------------------------------------------------------------|
|---2----------------3-----------------2--------------3---3---3---3-|




|------------------------------|           
|------------------------------|           
|------------------------------|  x3    
|------------------------------|           
|------------------------------|           
|---0222-0202320--0222-0202335-|           




|-------------------------|
|-------------------------|
|-------------------------|  x1
|-------------------------|
|-------------------------|
|---0222-0202320--7\5\9\0-|




|-------------------------------------------------|
|-------------------------------------------------|
|-------------------------------------------------|  x2
|-------------------------------------------------|
|---57---------57---------57----------------------|
|-----6700220----6700220----67002020--60-20-60-20-|




|--------------------|           |--------------------|           |--------------|
|--------------------|           |--------------------|           |--------------|
|--------------------|  x4       | -------------------|  x3       | -------------|  x1
|--------------------|           |--------------------|           |---2~~---3~~--|
|--------------------|           |---222223--02222230-|           |--------------|
|---222223--02222230-|           |---222223--02222230-|           |------2-----3-|


                                                                Do nothing for 4 sec

|--------------------|           |------------------|
|--------------------|           |------------------|
|--------------------|  x3       |------------------|
|--------------------|           |------------------|
|---222223--02222230-|           |------------------|
|---222223--02222230-|           |------------------|




|-------------------------------------------------|
|-------------------------------------------------|
|-------------------------------------------------|  x1
|-------------------------------------------------|
|---57---------57---------57----------------------|
|-----6700220----6700220----67002020--60-20-60-20-|



                                   Hold the last note for 8 sec 

|-----------------------------------------------------|
|-----------------------------------------------------|
|-----------------------------------------------------|  x1
|--------------------------------------2~~---3~~------|
|---57---------57---------57--------------------------|
|-----6700220----6700220----67002020------2-----3---2-|



Hope every enjoys the song!
Добавлено: 24.09.2013
Другие материалы по этой песне:
  • Аккорды и текст

Страница создана 10.05.2012
http://primanota.ru/family-force-5/kountry-gentleman-chords.htm
Привет, Гость.
Предлагаем пройти революционный курс по гитаре.
Подарок от PrimaNota.Ru, забирай!