PrimaNota.ru - самый крупный в мире бесплатный архив песенных текстов, аккордов, табулатур и нот


Family Force 5 - Get Your Back Off The Wall - текст песни, таба, видео

Регистрация Запомнить меня
Войти через:  Facebook Google Twitter Vk Yandex Mail.ru

Family Force 5 - Get Your Back Off The Wall - текст песни, таба, видео

Печатать
Просмотров: 127
Family Force 5 - Get Your Back Off The Wall

I've tabbed out some of the synths as well so you can play it completely with guitar. =)

Intro (0:08 “Get your back...”)
Both Guitars
e|---------------------------------------------|
B|---------------------------------------------|
G|-------------------------------7-7-----------|
D|-------------------------------7-7-6-6-0010--|
A|--0--1-0--1-0--4-3--1-0--1-0---5-5-6-6-0010--|
D|--0--1-0--1-0--4-3--1-0--1-0-------6-6-0010--|
    *  * *  * *  * *  * *  * *   

Guitar 1 (0:24)
e|----------------------------------------------|
B|----------------------------------------------|
G|--------------------------------7-7-----------|
D|-0--1-0--1-0--4-3--1-0--1-0-----7-7-6-6-0010--|
A|-0--1-0--1-0--4-3--1-0--1-0-----5-5-6-6-0010--|
D|-0--1-0--1-0--4-3--1-0--1-0-353-----6-6-0010--|

Guitar 2 (0:24)
e|---------------------------------------------------|
B|---------------------------------------------------|
G|--7-77-77-----------7-77-77----------7-7-----------|
D|-----------0-00-00----------1-11-11--7-7-6-6-0010--|
A|-------------------------------------5-5-6-6-0010--|
D|-----------------------------------------6-6-0010--|

Verse (0:40 “This revolution...”) 
Guitar 1
e|----------------------------------------------|
B|----------------------------------------------|
G|----------------------------------------------|
D|-----------------------------7-7--------------| 
A|--0--010--010--010--10--010--5-5--6-6--0-0-0--|
D|--0--010--010--010--10--010-------6-6--0-0-0--|
    *  ***  ***  ***  **  ***  * *  * *  * * *

Pre Chorus
Guitar 1 (0:56 “Shaking like a...”)
e|----------------------------------------------|
B|----------------------------------------------|
G|----------------------------------------------|
D|-----------------------------7-7--------------| 
A|--0--010--010--010--10--010--5-5--6-6--0-0-0--|
D|--0--010--010--010--10--010-------6-6--0-0-0--|
    *  ***  ***  ***  **  ***  * *  * *  * * *

Guitar 2 (0:56 “Shaking like a...”)
e|-------------------------------------------------------------------------|
B|-------------------------------------------------------------------------|
G|--7-7-7-77-7-7-77-7-7-101010101010--7-7-7-77-7-7-77-7-7-1010101010/1111--|
D|-------------------------------------------------------------------------|
A|-------------------------------------------------------------------------|
D|-------------------------------------------------------------------------|






Chorus
Guitar 1 (1:12 “Get your...”)
e|----------------------------------------------|
B|----------------------------------------------|
G|--------------------------------7-7-----------|
D|-0--1-0--1-0--4-3--1-0--1-0-----7-7-6-6-0010--|
A|-0--1-0--1-0--4-3--1-0--1-0-----5-5-6-6-0010--|
D|-0--1-0--1-0--4-3--1-0--1-0-353-----6-6-0010--|

Guitar 2 (1:13 “...back off the wall...”)
e|---------------------------------------------------|
B|---------------------------------------------------|
G|--7-77-77-----------7-77-77----------7-7-----------|
D|-----------0-00-00----------1-11-11--7-7-6-6-0010--|
A|-------------------------------------5-5-6-6-0010--|
D|-----------------------------------------6-6-0010--|

Verse
Guitar 1 (1:28 “We dig them...”) 
e|-----------------------------------------------|
B|-----------------------------------------------|
G|-----------------------------------------------|
D|-----------------------------------------------|
A|--10-0-0-010-0-0-010-0-0-045-5-5-5-10-0-0-010--|
D|--10-0-0-010-0-0-010-0-0-045-5-5-5-10-0-0-010--|
    ** * * *** * * *** * * *** * * * ** * * *** 

Repeat Pre-Chorus (1:44 “Fall in...”)

Repeat Chorus (2:00 “Get your...”)

Bridge (2:16 “Get your back...”)
Both Guitars
e|---------------------------------------------|
B|---------------------------------------------|
G|-------------------------------7-7-----------|
D|-------------------------------7-7-6-6-0010--|
A|--0--1-0--1-0--4-3--1-0--1-0---5-5-6-6-0010--|
D|--0--1-0--1-0--4-3--1-0--1-0-------6-6-0010--|
•	* *  * *  * *  * *  * * 

Repeat Chorus (2:32 “Get your...”)

Last Chorus
Guitar 1 (1:12 “Get your...”)
e|--------------------------------------------------------------------------|
B|--------------------------------------------------------------------------|
G|--------------------------------7-7----------7-7-----------7-7------------|
D|-0--1-0--1-0--4-3--1-0--1-0-----7-7-6-6-0010-7-7-6-6--0010-7-7-6-6-0010/--|
A|-0--1-0--1-0--4-3--1-0--1-0-----5-5-6-6-0010-5-5-6-6--0010-5-5-6-6-0010/--|
D|-0--1-0--1-0--4-3--1-0--1-0-353-----6-6-0010-----6-6--0010-----6-6-0010/--|




 


Добавлено: 01.12.2013
Другие материалы по этой песне:
  • Аккорды и текст

Страница создана 30.08.2013
http://primanota.ru/family-force-5/get-your-back-off-the-wall-chords.htm
Привет, Гость.
Предлагаем пройти революционный курс по гитаре.
Подарок от PrimaNota.Ru, забирай!