PrimaNota.ru - самый крупный в мире бесплатный архив песенных текстов, аккордов, табулатур и нот


Family Force 5 - Face Down - текст песни, таба, видео

Регистрация Запомнить меня
Войти через:  Facebook Google Twitter Vk Yandex Mail.ru

Family Force 5 - Face Down - текст песни, таба, видео

Печатать
Просмотров: 189
Face Down
Family Force 5
Standard


Intro
|----------------------------------------------------------|
|-------10-10----------14-14----------13-13-----13------15-|
|------------121212p012------------------------------------|
|-888p08--------------------111111p011-----11-11---11/13---|

Verse
|------------------------------------------------------------|
|-------13br-----------13br-----------13br--------------13br-|
|-------16br-----------16br-----------16br--------------16br-|
|------------------------------------------------------------|
|------------------------------------------------------------|
|------------------------------------------------------------|
|                                                            |
|------------------------------------------------------------|
|-------10-10----------14-14----------13-13-----13------15---|
|------------121212p012--------------------------------------|
|-888p08--------------------111111p011-----11-11---11/13-----|

|------------------------------------|
|------------------------------------|
|------------------------------------|
|-88-88-8\-44-44-4\-11-11-1\-44-44-4-|

Pre-Chorus
|-----------------------------------------------------|
|-------------------------------1---------------------|
|---------------0-----------3-3--2--------------------|
|-2-2-1-1-3-3-3-----2-2-1-1---------------------------|
|--3-3-3-3-3-3-3-3---3-3-3-3-3-3----------------------|
|-----------------------------------------------------|

Chorus
|----------------------------------------------------------------------------------|
|----------------------------------------------------------------------------------|
|----------------------------------------------------------------------------------|
|-10101010101010101010101010101010555555556666666677777777777777773333333333333333-|
|-x-x-x-x-x-x-x-x-x-x-x-x-x-x-x-x-xxxxxxxxxxxxxxxxxxxxxxxxxxxxxxxxxxxxxxxxxxxxxxxx-|
|-8-8-8-8-8-8-8-8-8-8-8-8-8-8-8-8-333333334444444455555555555555551111111111111111-|

Solo
Idk?
Добавлено: 03.10.2013
Другие материалы по этой песне:
  • Аккорды и текст

Страница создана 10.07.2012
http://primanota.ru/family-force-5/face-down-chords.htm
Привет, Гость.
Предлагаем пройти революционный курс по гитаре.
Подарок от PrimaNota.Ru, забирай!