PrimaNota.ru - самый крупный в мире бесплатный архив песенных текстов, аккордов, табулатур и нот


Family Force 5 - Drama Queen - текст песни, таба, бас-таба, видео

Регистрация Запомнить меня
Войти через:  Facebook Google Twitter Vk Yandex Mail.ru

Family Force 5 - Drama Queen - текст песни, таба, бас-таба, видео

Печатать
Просмотров: 199
Title:  Drama Queen
Artist: Family Force 5
Album:  Business Up Front/Party In the Back [Diamond Edition]
Tuning: Standard
Length: 3:51

Tabbed by Seth C

Intro (0:08)
e|----------------------------------------------------------------------|
B|------8-8898-88-8898-88-8898-88-8898-88-8898-88-8898-88-8898-88-8898--|
G|--(0)-----------------------------------------------------------------|
D|----------------------------------------------------------------------|
A|----------------------------------------------------------------------|
E|----------------------------------------------------------------------|
     PM  _____________________________________________| 

Intro Continued (0:17)
e|-------------------------------------------|
B|------------------------8888888888888888---|
G|-------------------------------------------|
D|-4/5--5/6-6-6-8----------------------------|
A|-4/5--5/6-6-6-8--x3-Then-------------------|
E|-2/3--3/4-4-4-6----------------------------|

Verse 1 (0:34 “That stuff that makes you hurt...”)
e|-----------------------|
B|-----------------------|
G|-----------------------|
D|--5--5---5--5-6-6------|
A|--5--5---5--5-6-6--x6--|
E|--3--3---3--3-4-4------|

Pre-Chorus (0:59 “Lets not fight...”)
e|------------------------------------------------------------------|
B|--8-8898-88-8898-88-8898-88-8898-88-8898-88-8898-88-8898-88-8898--|
G|------------------------------------------------------------------|
D|------------------------------------------------------------------|
A|------------------------------------------------------------------|
E|------------------------------------------------------------------|
  PM __________________________________________|

Chorus (1:08 “You go and...”)
e|------------------------------------------|
B|------------------------8888888877777777--|
G|------------------------------------------|
D|-4/5--5/6-6-6-8---------------------------| Repeat x2
A|-4/5--5/6-6-6-8--x3-Then------------------|
E|-2/3--3/4-4-4-6---------------------------|

Post-Chorus (1:25)
e|----------------------|
B|----------------------|
G|----------------------|
D|--5--5---5--5-6-6-----|
A|--5--5---5--5-6-6-x2--|
E|--3--3---3--3-4-4-----|



Verse 2 (1:48 “That's too much drama for me...”)
e|-----------------------------|
B|-----------------------------|
G|-----------------------------|
D|-xx-xxxx-5--5---5--5-6-6-----|
A|-xx-xxxx-5--5---5--5-6-6-x4--|
E|-xx-xxxx-3--3---3--3-4-4-----|
   ^Only play the first time

Pre-Chorus (2:07 “Your such a...”)
e|------------------------------------------------------------------|
B|--8-8898-88-8898-88-8898-88-8898-88-8898-88-8898-88-8898-88-8898--|
G|------------------------------------------------------------------|
D|------------------------------------------------------------------|
A|------------------------------------------------------------------|
E|------------------------------------------------------------------|
  PM___________________________________________|

Chorus (2:16 “You go and...”)
e|------------------------------------------|
B|------------------------8888888877777777--|
G|------------------------------------------|
D|-4/5--5/6-6-6-8---------------------------| Repeat x2
A|-4/5--5/6-6-6-8--x3-Then------------------|
E|-2/3--3/4-4-4-6---------------------------|

Post-Chorus (2:33)
e|---------------------------------|
B|---------------------------------|
G|---------------------------------|
D|--5--5---5--5-6-6--5--5---5--5/--|
A|--5--5---5--5-6-6--5--5---5--5/--|
E|--3--3---3--3-4-4--3--3---3--3/--|
 
Bridge Guitar 1 (2:41 “She's a drama queen...”) 
e|-------------------------------------------------------------|
B|-------------------------------------------------------------|
G|-------------------------------------------------------------|
D|-55-55--55-55-6-6--33-33-666666---------------------------5--|
A|-55-55--55-55-6-6--33-33-666666--x2-second-time-finish-on-5--|
E|-33-33--33-33-4-4--11-11-444444---------------------------3--|

Bridge Guitar 2 (2:50 “I don't need and it...”)
e|--------------------------------------|
B|--8--8-9-6--6--9--9-8--Let-them-ring--|
G|--------------------------------------|
D|--------------------------------------|
A|--------------------------------------|
E|--------------------------------------|



Bridge Continued (3:07 “There's no comparison...”) 
e|------------------------------------------------------------------|
B|--8-8898-88-8898-88-8898-88-8898-88-8898-88-8898-88-8898-88-8898--|
G|------------------------------------------------------------------|
D|------------------------------------------------------------------|
A|------------------------------------------------------------------|
E|------------------------------------------------------------------|
  PM__________________________________________|

Chorus (3:15 “You go and...”)
e|------------------------------------------|
B|------------------------8888888877777777--|
G|------------------------------------------|
D|-4/5--5/6-6-6-8---------------------------| Repeat x2
A|-4/5--5/6-6-6-8--x3-Then------------------|
E|-2/3--3/4-4-4-6---------------------------|

Outro (3:32)
e|----------------------|
B|----------------------|
G|----------------------|
D|--5--5---5--5-6-6-----|
A|--5--5---5--5-6-6-x3--|
E|--3--3---3--3-4-4-----|


Key:

Slide:                 /
Palm Mute:    PM ___|
Dead Note:       x
Optional Note: ( ) 

Woop Woop FF5!!! Enjoy the tab!




Добавлено: 12.09.2013
Другие материалы по этой песне:
  • Аккорды и текст

Страница создана 24.02.2012
http://primanota.ru/family-force-5/drama-queen-chords.htm
Привет, Гость.
Предлагаем пройти революционный курс по гитаре.
Подарок от PrimaNota.Ru, забирай!