PrimaNota.ru - самый крупный в мире бесплатный архив песенных текстов, аккордов, табулатур и нот


False Accusations - Sympathizer - бас-таба, видео

Регистрация Запомнить меня
Войти через:  Facebook Google Twitter Vk Yandex Mail.ru

False Accusations - Sympathizer - бас-таба, видео

Печатать
Просмотров: 68
Уроки эстрадного вокала в Санкт-Петербурге
Sympathizer

Intro p1
G----------------------------------|
D----------------------------------|
A---------3-3-3-2222333322225555---|
D-3-5-7-0--------------------------|

Intro p2
G----------------------------------|
D----------------------------------|
A---------3-3-3-2222333355550000---|
D-3-5-7-0--------------------------|

Intro p1

Intro p2

Breakdown verse x4
G----------------------------------|
D----------------------------------|
A-----------------------25---------|
D-0-00-00-370-0-00-00-25-----------|

Transition 1
G----------------------------------|
D----------------------------------|
A----------------------------------|
D-0~~~~~0--------------------------|

DGDlike guitar verse x4
G-----------------------------------|
D-----------------------------------|
A-333333222222------------------7-7-|
D-------------000000222222555333----|

Funk time B) x2
G---------------------------------------------|
D---------------------------------------------|
A---------------------------------------------|
D-2-22-225-5-0-00-002-2-2-22-225-5-225577*10--|


What's going on x8
G----------------------------------|
D----------------------------------|
A--------------------------(or333)-|
D-3-33-33-2-2-2-2-555555777101010--|

Prechorus x2
G----------------------------------|
D----------------------------------|
A-------3------5-----7-----8-------|
D-0(let ring)----------------------|

Chorus x2
G-----------------------------------------|
D-----------------------------------------|
A-----------------------------------------|
D-5555-555-555-5557777-7710-101010-101010-|

G-------------------------------------------|
D-------------------------------------------|
A-------------------------------------------|
D-0-000-0-03-0-000-0-02-0-000-0-03-000-0-02-|

Lets call this a verse!
G-------------------------------------------------|
D-------------------------------------------------|
A-30----------30---------30---------30------------|
D---30-023235---30-023235--30-023235--30-030777---|

wanelnenlnenl
G----------------------------------|
D----------------------------------|
A-3355553355553355-----------------|
D-----------------0-00-00-0-00-00--|

G----------------------------------|
D----------------------------------|
A-3355553355553355-----------------|
D-----------------0-00-00-0-00-00--|

G----------------------------------|
D----------------------------------|
A-5577775577775577-----------------|
D-----------------0-00-00-0-00-00--|

G------------------------------------------|
D------------------------------------------|
A-771010101077101010771010-----------------|
D-------------------------0-00-00-0-00-00--|


Little bass while the guitar does its thing because why not x2
G----------------------------------|
D--------------7-57-7--------------|
A----------------------------------|
D----------------------------------|

Funky part #2 B) x3
G----------------------------------|
D----------------------------------|
A----------------------------------|
D-7777-7777101010107777-99995555---|
then on da last time
G-------------------------------------|
D-------------------------------------|
A-------------------------------------|
D-7777-7777101010107777-555555555555--|

Chilllll
G----------------------------------|
D----------------------------------|
A-----------5~~~~3~~2~~------------|
D-7~~~~2~~~~-----------------------|

More chill but funkier
G-----------------------------------------------------------|
D-----------------------------------------------------------|
A-------------------------------555-75555-75-333-23-5-32-23-|
D-7-7--57777-7-575222-52-2-2--52----------------------------|

Oh it chill dawg o wait no it aint x2
G---------------------------------------------|
D---------------------------------------------|
A----------------------------------x555-------|
D-x7777777-x555-x333-x2222222-x000------------|

G----------------------------------|
D----------------------------------|
A----------------------------------|
D-03702525037025250370252503702525-

Kind of like jogging
G----------------------------------|
D----------------------------------|
A--23-3333-23-5555-23-3333-23------|
D-0--0----0--0----0--0----0--02222-|

Ending swag
G----------------------------------|
D----------------------------------|
A----------3-3---------------------|
D-0---0--00-----0--0--0-0--0-------|

G----------------------------------|
D----------------------------------|
A----------3-3-----3233-5----------|
D-0---0--00-----0------------------|
Добавлено: 09.08.2015
Другие материалы по этой песне:
  • Аккорды и текст

Страница создана 09.08.2015
http://primanota.ru/false-accusations/sympathizer-chords.htm
Привет, Гость.
Предлагаем пройти революционный курс по гитаре.
Подарок от PrimaNota.Ru, забирай!