PrimaNota.ru - самый крупный в мире бесплатный архив песенных текстов, аккордов, табулатур и нот


Fallujah - Allure - таба, видео

Регистрация Запомнить меня
Войти через:  Facebook Google Twitter Vk Yandex Mail.ru

Fallujah - Allure - таба, видео

Печатать
Просмотров: 149
Уроки эстрадного вокала в Санкт-Петербурге
This is the melody at the very start of "Allure" by Fallujah, I hope other people can use this
information to put together the whole song :)

I think the song is like all other Fallujah songs I'm familiar with in standard on a 7-String,
so BEADGBE (but you can play it on a 6-string as well, because it's the melody): 

(0:00-0:50)
e|----------------------------------------------------------------|-
B|----17~------------------------------------------17--12~--13-15-|-
G|--14~--16~------17-14-16-----------------16~--14~---------------|-
D|--------------------------17------------------------------------|- 2x
A|----------------------------19~--17~--19~-----------------------|-
E|----------------------------------------------------------------|-
B|----------------------------------------------------------------|-


This part gets repeated, and then comes this little part as the riff changes:

e|------------------------12--10--7~--------------------------|-
B|-15~-15-13-12--10~------------------------------------------|-
G|----------------9~------------------------------------------|-
D|------------------------------------------------------------|-
A|------------------------------------------------------------|-
E|------------------------------------------------------------|-
B|------------------------------------------------------------|-

I hope this helps,listen to the song for the timing and rhythm!
Добавлено: 29.07.2015
Другие материалы по этой песне:
  • Аккорды и текст

Страница создана 29.07.2015
http://primanota.ru/fallujah/allure-chords.htm
Привет, Гость.
Предлагаем пройти революционный курс по гитаре.
Подарок от PrimaNota.Ru, забирай!