PrimaNota.ru - самый крупный в мире бесплатный архив песенных текстов, аккордов, табулатур и нот


Falling - What I Really Am - таба, видео

Регистрация Запомнить меня
Войти через:  Facebook Google Twitter Vk Yandex Mail.ru

Falling - What I Really Am - таба, видео

Печатать
Просмотров: 39
Уроки эстрадного вокала в Санкт-Петербурге
-------------------------------------------------------------------------------
                          What I Really Am - The Falling
-------------------------------------------------------------------------------
If you have any suggestions let me know. ^^
I also have a video: https://youtu.be/FRsw3jGMTAc :D
Tabbed by: Bart Baart
E-mail: DG.Cryard@gmail.com
Tuning: Drop B


[INTRO]
No guitar


[VERSE ONE]
c#|--------------|-----------|--------------|-----------|
g#|--------------|-----------|--------------|-----------|
e |--------------|-----------|--------------|-----------|
b |-5-5-5-5-5----|-5----5----|-9-9-9-9-9----|-9----9----|
f#|-5-5-5-5-5----|-5----5----|-9-9-9-9-9----|-9----9----|
b |-5-5-5-5-5----|-5----5----|-9-9-9-9-9----|-9----9----|

c#|-----------------|-----------------|------------------|-----------------|
g#|-----------------|-----------------|------------------|-----------------|
e |-----------------|-----------------|------------------|-----------------|
b |-3-x-x-x-x-x-x-x-|-x-x-x-x-x-x-x-x-|-10-x-x-x-x-x-x-x-|-x-x-x-x-x-x-x-x-|
f#|-3-x-x-x-x-x-x-x-|-x-x-x-x-x-x-x-x-|-10-x-x-x-x-x-x-x-|-x-x-x-x-x-x-x-x-|
b |-3-x-x-x-x-x-x-x-|-x-x-x-x-x-x-x-x-|-10-x-x-x-x-x-x-x-|-x-x-x-x-x-x-x-x-|

c#|--------------|-----------|--------------|-----------|
g#|--------------|-----------|--------------|-----------|
e |--------------|-----------|--------------|-----------|
b |-5-5-5-5-5----|-5----5----|-9-9-9-9-9----|-9----9----|
f#|-5-5-5-5-5----|-5----5----|-9-9-9-9-9----|-9----9----|
b |-5-5-5-5-5----|-5----5----|-9-9-9-9-9----|-9----9----|


[PRE-CHORUS]
c#|------------------|-----------------|
g#|------------------|-----------------|
e |------------------|-----------------|
b |-10-x-x-x-x-x-x-x-|-5-x-x-x-x-x-x-x-|
f#|-10-x-x-x-x-x-x-x-|-5-x-x-x-x-x-x-x-|
b |-10-x-x-x-x-x-x-x-|-5-x-x-x-x-x-x-x-|


[CHORUS]
c#|--------------|------------------|--------------|--------------|
g#|--------------|------------------|--------------|--------------|
e |--------------|------------------|--------------|--------------|
b |-3--3---3-3---|-10--10---10-10---|-5--5---5-5---|-0--0---0-0---|
f#|-3--3---3-3---|-10--10---10-10---|-5--5---5-5---|-0--0---0-0---|
b |-3--3---3-3---|-10--10---10-10---|-5--5---5-5---|-0--0---0-0---| REPEAT 4X

THERE'S A SMALL BREAK BEFORE VERSE ONE STARTS


[VERSE ONE]
c#|-----------------|-----------------|------------------|-----------------|
g#|-----------------|-----------------|------------------|-----------------|
e |-----------------|-----------------|------------------|-----------------|
b |-3-x-x-x-x-x-x-x-|-x-x-x-x-x-x-x-x-|-10-x-x-x-x-x-x-x-|-x-x-x-x-x-x-x-x-|
f#|-3-x-x-x-x-x-x-x-|-x-x-x-x-x-x-x-x-|-10-x-x-x-x-x-x-x-|-x-x-x-x-x-x-x-x-|
b |-3-x-x-x-x-x-x-x-|-x-x-x-x-x-x-x-x-|-10-x-x-x-x-x-x-x-|-x-x-x-x-x-x-x-x-|

c#|--------------|-----------|--------------|-----------|
g#|--------------|-----------|--------------|-----------|
e |--------------|-----------|--------------|-----------|
b |-5-5-5-5-5----|-5----5----|-9-9-9-9-9----|-9----9----|
f#|-5-5-5-5-5----|-5----5----|-9-9-9-9-9----|-9----9----|
b |-5-5-5-5-5----|-5----5----|-9-9-9-9-9----|-9----9----|

c#|-----------------|-----------------|------------------|-----------------|
g#|-----------------|-----------------|------------------|-----------------|
e |-----------------|-----------------|------------------|-----------------|
b |-3-x-x-x-x-x-x-x-|-x-x-x-x-x-x-x-x-|-10-x-x-x-x-x-x-x-|-x-x-x-x-x-x-x-x-|
f#|-3-x-x-x-x-x-x-x-|-x-x-x-x-x-x-x-x-|-10-x-x-x-x-x-x-x-|-x-x-x-x-x-x-x-x-|
b |-3-x-x-x-x-x-x-x-|-x-x-x-x-x-x-x-x-|-10-x-x-x-x-x-x-x-|-x-x-x-x-x-x-x-x-|

c#|--------------|-----------|--------------|-----------|
g#|--------------|-----------|--------------|-----------|
e |--------------|-----------|--------------|-----------|
b |-5-5-5-5-5----|-5----5----|-9-9-9-9-9----|-9----9----|
f#|-5-5-5-5-5----|-5----5----|-9-9-9-9-9----|-9----9----|
b |-5-5-5-5-5----|-5----5----|-9-9-9-9-9----|-9----9----|


[PRE-CHORUS]
Just play the pre-chorus like before


[CHORUS]
Play the chorus like before, but the break is way longer this time


[BRIDGE](partly similar to chorus)(use more distortion)(let the chords ring out)
c#|-----------|----------|-----------------|-----------------|
g#|-----------|----------|-----------------|-----------------|
e |-----------|----------|-----------------|-----------------|
b |-10--------|-5--------|-9-x-x-x-x-x-x-x-|-x-x-x-x-x-x-x-x-|
f#|-10--------|-5--------|-9-x-x-x-x-x-x-x-|-x-x-x-x-x-x-x-x-|
b |-10--------|-5--------|-9-x-x-x-x-x-x-x-|-x-x-x-x-x-x-x-x-|

c#|----------|-----------|----------|----------|
g#|----------|-----------|----------|----------|
e |----------|-----------|----------|----------|
b |-3--------|-10--------|-5--------|-0--------|
f#|-3--------|-10--------|-5--------|-0--------|
b |-3--------|-10--------|-5--------|-0--------|

c#|----------|-----------|----------|----------|
g#|----------|-----------|----------|----------|
e |----------|-----------|----------|----------|
b |-3--------|-10--------|-5--------|-0--------|
f#|-3--------|-10--------|-5--------|-0-(BREAK)|
b |-3--------|-10--------|-5--------|-0--------| AFTER YOU PLAYED THE LAST CHORD MUTE THE STRINGS FOR A BREAK.


[CHORUS]
Just play the chorus like the first time.




************************************

| /   slide up
| \   slide down
| h   hammer-on
| p   pull-off
| ~   vibrato
| +   harmonic
| x   Mute note
| b   Bend
| pb  Pre-bend
| br  Bend release
| pbr Pre-bend release
| brb Bend release bend

************************************
Добавлено: 15.06.2016
Вам также может быть интересно:
Другие материалы по этой песне:
  • Аккорды и текст

Страница создана 15.06.2016
http://primanota.ru/falling/what-i-really-am-chords.htm
Привет, Гость.
Предлагаем пройти революционный курс по гитаре.
Подарок от PrimaNota.Ru, забирай!