PrimaNota.ru - самый крупный в мире бесплатный архив песенных текстов, аккордов, табулатур и нот


Falling Up - Moonlit - таба, видео

Регистрация Запомнить меня
Войти через:  Facebook Google Twitter Vk Yandex Mail.ru

Falling Up - Moonlit - таба, видео

Печатать
Просмотров: 166
Moonlit--Falling up

intro
e--5p3p0---0--------5p3p0-5p3p0---0----------5p3p0-5p3p0---0--------5p3p0--|
b--------3---1------------------3---1--------------------3---1-------------|
g--------------------------------------------------------------------------|
d--------------s33330-----------------s33330-------------------s33330------|
a--------------------------------------------------------------------------|
d--------------------------------------------------------------------------|

verses
e------------17-15--------------------|
b-------------------------------------|
g-------------------------------------| repeat
d--12-12-10---------12-12-10--xxxxxxx-|
a--12-12-10---------12-12-10--xxxxxxx-|
d--12-12-10---------12-12-10--xxxxxxx-|

bridge
e-----------------------------------|
b-----------------------------------|
g-----------------------------------|
d--0--------12----------0-----------|
a--0--------12----------0-----------|
d--0--------12----------0-----------|

chorus
e------------------------------------------------------------|
b------------------------------------------------------------|
g------------------------------------------------------------|
d--55555555-5-7-88888888--1212121212121212-1010101010101010--|
a--55555555-5-7-88888888--1212121212121212-1010101010101010--|
d--55555555-5-7-88888888--1212121212121212-1010101010101010--|
                         12 not 1 and 2   10 not 1 and 0

after-chorus or play intro
e--5---|
b--6---|
g--7---| repeat
d--7---|
a--5---|
d------|
Добавлено: 27.04.2012
Другие материалы по этой песне:
  • Аккорды и текст

Страница создана 27.04.2012
http://primanota.ru/falling-up/moonlit-chords.htm
Привет, Гость.
Предлагаем пройти революционный курс по гитаре.
Подарок от PrimaNota.Ru, забирай!