PrimaNota.ru - самый крупный в мире бесплатный архив песенных текстов, аккордов, табулатур и нот


Falling In Reverse - Stay Away - таба, бас-таба, видео

Регистрация Запомнить меня
Войти через:  Facebook Google Twitter Vk Yandex Mail.ru

Falling In Reverse - Stay Away - таба, бас-таба, видео

Печатать
Просмотров: 101
================================================================================
                        Stay Away - Falling In Reverse
================================================================================
Drop D
Fark It's Been A while since I did a tab, let alone in a Drop Tuning - Let's do This.


Main Riff:
Guitar
---------------------------------------|
---------------------------------------|
---------------------------------------| x2
-00000--00000--000088888--88887--7777--|
-00000--00000--000088888--88887--7777--|
-00000--00000--000088888--88887--7777--|
Guitar
-5555553311111111555555330000111~------|
-6666665533333333666666552222333~------|
---------------------------------------| x2
---------------------------------------|
---------------------------------------|
---------------------------------------|



Verse:
Guitar
-Switches -----------------------so I---------------------|
-randomly ---------------------------Just-----------------|
-between----2~--and----------------------Do This-----2~---| x64
------------3~-------3~--nonstop---------------------3~---|
---------------------5~------------------------------5~---|
----------------------------------------------------------|
All on off beat. Just leave a note out every now and then.
Guitar
----------------------------------------------------------|
----------------------------------------------------------|
---------------------(6666)-------------------------------|
-0000---0000---8888---7777--------------------------------|
-0000---0000---8888---7777--------------------------------|
-0000---0000---8888---7777--------------------------------|
Halfway Through



Verse Breakdown:
----------------------------------------------------------------|
----------------------------------------------------------------|
----------------------------------------------------------------| x2
-0-0-0---000-0-0------000-0-0-x-x-x-0-000-0-0-xxxxxxx-----000---|
-0-0-0---000-0-0------000-0-0-x-x-x-0-000-0-0-xxxxxxx-12\-000---|
-0-0-0---000-0-0--8\0-000-0-0-x-x-x-0-000-0-0-xxxxxxx-12\-000---|
Just continue 12 fret slide on 2nd repeat.
Also no mutes on 2nd repeat.



Chorus: (sure you can figure out how many repeat there are)
Guitar
----------------------------------------------------------------|
----------------------------------------------------------------|
-10--------17--------14--------12----14-------------------------|
-x---------x---------x---------x-----x--------------------------|
-8---------15--------12--------10----12-------------------------|
----------------------------------------------------------------|
Guitar                                                           =x2
----------------------------------------------------------------|
----------------------------------------------------------------|
------------------------------(6)-------------------------------| 
-0---------8---------3---------7--------------------------------|
-0---------8---------3---------7--------------------------------|
-0---------8---------3---------7--------------------------------|
Then
Guitar
----------------------------------------------------------------|
----------------------------------------------------------------|
-10-------17-------14-------12--14---7--------10------9---------|
-x--------x--------x--------x---x----x--------x-------x---------|
-8--------15-------12-------10--12---5--------8-------7---------|
----------------------------------------------------------------|
Guitar
----------------------------------------------------------------|
----------------------------------------------------------------|
----------------------------------------------------------------|
-000-000--888-888--333-333--777-777--888-888-333-333--10--------|
-000-000--888-888--333-333--777-777--888-888-333-333--10--------|
-000-000--888-888--333-333--777-777--888-888-333-333--10--------|



Main Riff x2 (Similar, ending phrase is changed)

Verse (Guitar two rhythm changes though easy)

Chorus



Solo: (Guitar 2 is same chords as entire chorus)
-------------------22---------------------------------------------------------|
-----------------22--20------/22----/22----/21--------------------------------|
------22b(24)v~~-------22~~-----/22----/21----/21\20\19~~---------------------|
--\\--------------------------------------------------------------------------|
--\\-----------------------------------------------------17\16\15-------------|
------------------------------------------------------------------15\13~~-----|

--------------------two guitar harmonies.-----------------------------------------------------------|
----------------------------------------14v~~\\\---------------------/13-13-13~-/13-13-13-13v~~-----|
--------------------------------17~-14~-14v~~\\\----/5-5-5~-/5-5-5~--/14-14-14~-/14-14-14-14v~~-----|
------17~-15~-------15~~--14~~--17~-15~-------------/7-7-7~-/7-7-7~---------------------------------|
--15~---------15~~--12~~--15~~-----------------------------------------------------------(15)v~~----|
----------------------------------------------------------------------------------------------------|


-------15~------------------------------------------------------------------------------------------|
---15-----15\14-------------------------------------------------------------------------------------|
-14--14--------14\12-14p12-----15~~-14~~\\\\--------------------------------------------------------|
-------------------------h15---17~~-15~~\\\\------V-Fast--------------------------------------------|
------------------------------------------------------------------------13-12-12-12-17-15-14-15-----|
---------------------------------------------------15~~15-15-17-15-15-15----------------------------|

----------------------------------------------------------------------------------------------------|
-------------------------17-15-14-15h17h18-17-16h17~~----------17h18h20--------18h20h22-------------|
-------------15-14-12-14-------------------------------15h17h19--------17h19h21---------------------|
-17-15-14-15----------------------------------------------------------------------------------------|
----------------------------------------------------------------------------------------------------|
----------------------------------------------------------------------------------------------------|

---------17/18~~--------17/20~~22v~~~~24v~~~25v~~~~~~~----------------------------------------------|
-17h18h20-------17h18h20----------------------------------------------------------------------------|
----------------------------------------------------------------------------------------------------|
----------------------------------------------------------------------------------------------------|
----------------------------------------------------------------------------------------------------|
----------------------------------------------------------------------------------------------------|

Chorus Octaves
------------------------------------------------------------------|
------------------------------------------------------------------|
-10----5-----17--------14--------12----14-------------------------| x2
-x-----x-----x---------x---------x-----x--------------------------|
-8-----3-----15--------12--------10----12-------------------------|
------------------------------------------------------------------|

Full Chorus

Main Riff  x2 (little different again)

End on open 000's


Well... goodluck.
Добавлено: 04.03.2016
Другие материалы по этой песне:
  • Аккорды и текст

Страница создана 04.11.2015
http://primanota.ru/falling-in-reverse/stay-away-chords.htm
Привет, Гость.
Предлагаем пройти революционный курс по гитаре.
Подарок от PrimaNota.Ru, забирай!