PrimaNota.ru - самый крупный в мире бесплатный архив песенных текстов, аккордов, табулатур и нот


Falling In Reverse - Rolling Stone - таба, бас-таба, видео

Регистрация Запомнить меня
Войти через:  Facebook Google Twitter Vk Yandex Mail.ru

Falling In Reverse - Rolling Stone - таба, бас-таба, видео

Печатать
Просмотров: 170
-------------------------------------------------------------------------------
                             Rolling Stone – Falling In Reverse
-------------------------------------------------------------------------------
Tabbed by: bmh62695
E-mail: bmh62695@yahoo.com

Tuning: drop c

Intro

e|---------------------------------------------------------------------------|
B|---------------------------------------------------------------------------|
G|---------------------------------------------------------------------------|
D|---------------------------------------------------------------------------|
A|---------------5p0---------------------------------------------------------|
E|-0-2p0-0-3p0-0-----0-2-3-2-3-----------------------------------------------|        

Verse

e|---------------------------------------------------------------------------|
B|---------------------------------------------------------------------------|
G|---------------------------------------------------------------------------|
D|----------------3----------------------------------------------------------|
A|----------------3----------------------------------------------------------|
E|-0-000-0000-0-0-3----------------------------------------------------------|

Verse lead

Just tremolo pick the d string open and hit the notes indicated

e|---------------------------------------------------------------------------|
B|---------------------------------------------------------------------------|
G|---------------------------------------------------------------------------|
D|-8-7-5-7-8-7-5-3-----------------------------------------------------------|
A|---------------------------------------------------------------------------|
E|---------------------------------------------------------------------------|

Chorus

Lead

e|---------------------------------------------------------------------------|
B|---------------------------------------------------------------------------|
G|--7-10--5--14--12--7-10--5--14--12-10--9--7--14--12--7-10--5--6------------|
D|--x--x--x---x---x--x--x--x---x---x--x--x--x---x---x--x--x--x--x------------|
A|--5--8--3--12--10--5--8--3--12--10--8--7--5--12--10--5--8--3--4------------|
E|---------------------------------------------------------------------------|

Rhythm

e|---------------------------------------------------------------------------|
B|---------------------------------------------------------------------------|
G|---------------------------------------------------------------------------|
D|-3--7--5--3-2--3--7--5--3-2--7--5--3--3-2--3--7--5--3-2--------------------|
A|-1--5--3--3-2--1--5--3--3-2--5--3--1--3-2--1--5--3--3-2--------------------|
E|----------3-2-----------3-2-----------3-2-----------3-2--------------------|

Breakdown is pretty simple but end with

Lead

e|---------------------------------------------------------------------------|
B|---------------------------------------------------------------------------|
G|-10------------------------------------------------------------------------|
D|--x------------------------------------------------------------------------|
A|--8------------------------------------------------------------------------|
E|---------------------------------------------------------------------------|

Rhythm

e|---------------------------------------------------------------------------|
B|---------------------------------------------------------------------------|
G|---------------------------------------------------------------------------|
D|--7------------------------------------------------------------------------|
A|--5------------------------------------------------------------------------|
E|---------------------------------------------------------------------------|

Last chorus lead

Play first part twice like first chorus

e|---------------------------------------------------------------------------|
B|--8-12-10--15--13----15--13--12--10----8-12-10-11--------------------------|
G|--x--x--x---x---x-----x---x---x---x----x--x--x--x--------------------------|
D|--5--9--7--12--10----12--10---9---7----5--9--7--8--------------------------|
A|---------------------------------------------------------------------------|
E|---------------------------------------------------------------------------|



************************************

| /   slide up
| \   slide down
| h   hammer-on
| p   pull-off
| ~   vibrato
| +   harmonic
| x   Mute note
| b   Bend
| pb  Pre-bend
| br  Bend release
| pbr Pre-bend release
| brb Bend release bend

************************************
Добавлено: 27.07.2013
Другие материалы по этой песне:
  • Аккорды и текст

Страница создана 27.07.2013
http://primanota.ru/falling-in-reverse/rolling-stone-chords.htm
Привет, Гость.
Предлагаем пройти революционный курс по гитаре.
Подарок от PrimaNota.Ru, забирай!