PrimaNota.ru - самый крупный в мире бесплатный архив песенных текстов, аккордов, табулатур и нот


Falling In Reverse - Fashionably Late (album) - бас-таба, видео

Регистрация Запомнить меня
Войти через:  Facebook Google Twitter Vk Yandex Mail.ru

Falling In Reverse - Fashionably Late (album) - бас-таба, видео

Печатать
Просмотров: 119
Champion

Intro
F|-----------------------------------------------------------------|
C|-----------------------------------------------------------------|
G|-----------------------------------------------------------------|
C|-0-------------------------------------------------------------/-|
   1 + 2 + 3 + 4 + 1 + 2 + 3 + 4 + 1 + 2 + 3 + 4 + 1 + 2 + 3 + 4 +

F|-----------------------------------------------------------------|
C|-----------------------------------------------------------------|
G|-----------------------------------------------------------------|
C|-12--------------------------------------------------------------|
   1 + 2 + 3 + 4 + 1 + 2 + 3 + 4 + 1 + 2 + 3 + 4 + 1 + 2 + 3 + 4 +

F|-----------------------------------------------------------------|
C|-----------------------------------------------------------------|
G|-----------------------------------------------------------------|
C|-0---------------------------------------------------------------|
   1 + 2 + 3 + 4 + 1 + 2 + 3 + 4 + 1 + 2 + 3 + 4 + 1 + 2 + 3 + 4 +

F|-----------------------------------------------------------------|
C|-----------------------------------------------------------------|
G|-----------------------------------------------------------------|
C|-0---0---0---0---0---0---0---0---0---0---0---0---0---0---0-------|
   1 + 2 + 3 + 4 + 1 + 2 + 3 + 4 + 1 + 2 + 3 + 4 + 1 + 2 + 3 + 4 +

Verse 0:20
F|-------------------------------------------------------------------|
C|o-----------------------------------------------------------------o|
G|o-----------------------------------------------------------------o|x3
C|--0-0-000-000---------000-000---------000-000----------------------|
   1 + 2 + 3 + 4 + 1 + 2 + 3 + 4 + 1 + 2 + 3 + 4 + 1 + 2 + 3 + 4 +

F|-----------------------------------------------------------------|
C|-----------------------------------------------------------------|
G|-----------------------------------------------------------------|
C|-0-0-0-0-0-0-0-0-0-0-0-0-0-0-0-0-0-0-0-0-0-0-0-0-7-7-7-7-12--\---|
   1 + 2 + 3 + 4 + 1 + 2 + 3 + 4 + 1 + 2 + 3 + 4 + 1 + 2 + 3 + 4 +

Pre Chorus 0:40
F|-----------------------------------------------------------------|
C|-----------------------------------------------------------------|
G|-1-1-1-1-1-1-1-1-1-1-1-1-1-1-1-1-1-1-1-1-1-1-1-1-1-1-1-1-3-3-3-3-|
C|-----------------------------------------------------------------|
   1 + 2 + 3 + 4 + 1 + 2 + 3 + 4 + 1 + 2 + 3 + 4 + 1 + 2 + 3 + 4 +

F|-----------------------------------------------------------------|
C|-----------------------------------------------------------------|
G|-----------------------------------------------------------------|
C|-0-0-0-0-0-0-0-0-0-0-0-0-0-0-0-0-3-3-3-3-3-3-3-3-3-3-3-3-3-3-3-3-|
   1 + 2 + 3 + 4 + 1 + 2 + 3 + 4 + 1 + 2 + 3 + 4 + 1 + 2 + 3 + 4 +

F|-----------------------------------------------------------------|
C|-----------------------------------------------------------------|
G|-1-1-1-1-1-1-1-1-1-1-1-1-1-1-1-1-1-1-1-1-1-1-1-1-1-1-1-1-3-3-3-3-|
C|-----------------------------------------------------------------|
   1 + 2 + 3 + 4 + 1 + 2 + 3 + 4 + 1 + 2 + 3 + 4 + 1 + 2 + 3 + 4 +

F|-----------------------------------------------------------------|
C|-----------------------------------------------------------------|
G|-------------------------------------------------1-1-1-1-3-------|
C|-0-0-0-0-0-0-0-0-0-0-0-0-0-0-0-0-0-0-0-0-0-0-0-0-----------------|
   1 + 2 + 3 + 4 + 1 + 2 + 3 + 4 + 1 + 2 + 3 + 4 + 1 + 2 + 3 + 4 +

Chorus 0:59
F|-----------------------------------------------------------------|
C|-----------------------------------------------------------------|
G|-5-5-5-5-5-5-5-5-1-1-1-1-1-1-1-1-----------------3-3-3-3-4-4-4-4-|
C|---------------------------------3-3-3-3-3-3-3-3-----------------|
   1 + 2 + 3 + 4 + 1 + 2 + 3 + 4 + 1 + 2 + 3 + 4 + 1 + 2 + 3 + 4 +

F|-----------------------------------------------------------------|
C|-----------------------------------------------------------------|
G|-5-5-5-5-5-5-5-5-1-1-1-1-1-1-1-1-----------------3-3-3-3-4-4-----|
C|---------------------------------3-3-3-3-3-3-3-3-------------11\-|
   1 + 2 + 3 + 4 + 1 + 2 + 3 + 4 + 1 + 2 + 3 + 4 + 1 + 2 + 3 + 4 +

F|-----------------------------------------------------------------|
C|-----------------------------------------------------------------|
G|-----------------1-1-1-1-1-1-1-1-----------------3-3-3-3-4-4-4-4-|
C|-0-0-0-0-0-0-0-0-----------------3-3-3-3-3-3-3-3-----------------|
   1 + 2 + 3 + 4 + 1 + 2 + 3 + 4 + 1 + 2 + 3 + 4 + 1 + 2 + 3 + 4 +

F|-----------------------------------------------------------------|
C|-----------------------------------------------------------------|
G|-----------------1-1-1-1-1-1-1-1-----------------3-3-3-3-0-0-0-0-|
C|-0-0-0-0-0-0-0-0-----------------3-----3-3-3---3-----------------|
   1 + 2 + 3 + 4 + 1 + 2 + 3 + 4 + 1 + 2 + 3 + 4 + 1 + 2 + 3 + 4 +

Verse 1:22
F|-------------------------------------------------------------------|
C|o-----------------------------------------------------------------o|
G|o-----------------------------------------------------------------o|
C|--0-0-000-000---------000-000---------000-000----------------------|
    1 + 2 + 3 + 4 + 1 + 2 + 3 + 4 + 1 + 2 + 3 + 4 + 1 + 2 + 3 + 4 +

F|-----------------------------------------------------------------|
C|-----------------------------------------------------------------|
G|-----------------------------------------------------------------|
C|-0---000-000---------000-000---------000-000---------------------|
   1 + 2 + 3 + 4 + 1 + 2 + 3 + 4 + 1 + 2 + 3 + 4 + 1 + 2 + 3 + 4 +

F|-----------------------------------------------------------------|
C|-----------------------------------------------------------------|
G|-------------------------------------------------5-5-5-5-5-5-5-5-|
C|-0-0-000-000-0-0-0-0-000-000-0-0-0-0-000-000-0-0-----------------|
   1 + 2 + 3 + 4 + 1 + 2 + 3 + 4 + 1 + 2 + 3 + 4 + 1 + 2 + 3 + 4 +

Pre Chorus 1:42
F|-----------------------------------------------------------------|
C|-----------------------------------------------------------------|
G|-1-1-1-1-1-1-1-1-1-1-1-1-1-1-1-1-1-1-1-1-1-1-1-1-1-1-1-1-3-3-3-3-|
C|-----------------------------------------------------------------|
   1 + 2 + 3 + 4 + 1 + 2 + 3 + 4 + 1 + 2 + 3 + 4 + 1 + 2 + 3 + 4 +

F|-----------------------------------------------------------------|
C|-----------------------------------------------------------------|
G|-----------------------------------------------------------------|
C|-0-0-0-0-0-0-0-0-0-0-0-0-0-0-0-0-3-3-3-3-3-3-3-3-----------------|
   1 + 2 + 3 + 4 + 1 + 2 + 3 + 4 + 1 + 2 + 3 + 4 + 1 + 2 + 3 + 4 +

Chorus 1:52
F|-----------------------------------------------------------------|
C|-----------------------------------------------------------------|
G|-5-5-5-5-5-5-5-5-1-1-1-1-1-1-1-1-----------------3-3-3-3-4-4-4-4-|
C|---------------------------------3-3-3-3-3-3-3-3-----------------|
   1 + 2 + 3 + 4 + 1 + 2 + 3 + 4 + 1 + 2 + 3 + 4 + 1 + 2 + 3 + 4 +

F|-----------------------------------------------------------------|
C|-----------------------------------------------------------------|
G|-5-5-5-5-5-5-5-5-1-1-1-1-1-1-1-1-----------------3-3-3-3-4-4-----|
C|---------------------------------3-3-3-3-3-3-3-3-------------11\-|
   1 + 2 + 3 + 4 + 1 + 2 + 3 + 4 + 1 + 2 + 3 + 4 + 1 + 2 + 3 + 4 +

F|-----------------------------------------------------------------|
C|-----------------------------------------------------------------|
G|-----------------1-1-1-1-1-1-1-1-----------------3-3-3-3-4-4-4-4-|
C|-0-0-0-0-0-0-0-0-----------------3-3-3-3-3-3-3-3-----------------|
   1 + 2 + 3 + 4 + 1 + 2 + 3 + 4 + 1 + 2 + 3 + 4 + 1 + 2 + 3 + 4 +

F|-----------------------------------------------------------------|
C|-----------------------------------------------------------------|
G|-----------------1-1-1-1-1-1-1-1-----------------3-3-3-3-0-0-0-0-|
C|-0-0-0-0-0-0-0-0-----------------3-----3-3-3---3-----------------|
   1 + 2 + 3 + 4 + 1 + 2 + 3 + 4 + 1 + 2 + 3 + 4 + 1 + 2 + 3 + 4 +

Rap

Breakdown 2:53 
F|-----------------------------------------------------------------|
C|-----------------------------------------------------------------|
G|-----------------------------------------------------------------|
C|-000-000-000-000-000-000-000-000-0-0-0-0-000-000-0-0-0-0-5b--5b--|
   1 + 2 + 3 + 4 + 1 + 2 + 3 + 4 + 1 + 2 + 3 + 4 + 1 + 2 + 3 + 4 +

F|-----------------------------------------------------------------|
C|-----------------------------------------------------------------|
G|-----------------------------------------------------------------|
C|-000-000-000-000-000-000-000-000-0-0-0-0-0-0-0-0-0-0-0-0-3---2---|
   1 + 2 + 3 + 4 + 1 + 2 + 3 + 4 + 1 + 2 + 3 + 4 + 1 + 2 + 3 + 4 +

3:03
F|---------------------------------------------------------------------------------|
C|---------------------------------------------------------------------------------|
G|-----------------------------------------------------------------888-777-555-333-|
C|---------12--\---0-------------------------------0-----0-----0-------------------|
   1 + 2 + 3 + 4 + 1 + 2 + 3 + 4 + 1 + 2 + 3 + 4 + 1 + 2 + 3 + 4 + 1 + 2 + 3 + 4 +

F|---------------------------------------------------------------------------------|
C|---------------------------------------------------------------------------------|
G|-----------------888-777-555-333-----------------888-777-555-333-5-5-------------|
C|-0-----0-----0-------------------0-----0-----0-----------------------------------|
   1 + 2 + 3 + 4 + 1 + 2 + 3 + 4 + 1 + 2 + 3 + 4 + 1 + 2 + 3 + 4 + 1 + 2 + 3 + 4 +

Rest

Chorus 3:24
F|-----------------------------------------------------------------|
C|-----------------------------------------------------------------|
G|-5-5-5-5-5-5-5-5-1-1-1-1-1-1-1-1-----------------3-3-3-3-4-4-4-4-|
C|---------------------------------3-3-3-3-3-3-3-3-----------------|
   1 + 2 + 3 + 4 + 1 + 2 + 3 + 4 + 1 + 2 + 3 + 4 + 1 + 2 + 3 + 4 +

F|-----------------------------------------------------------------|
C|-----------------------------------------------------------------|
G|-5-5-5-5-5-5-5-5-1-1-1-1-1-1-1-1-----------------3-3-3-3-4-4-----|
C|---------------------------------3-3-3-3-3-3-3-3-------------11\-|
   1 + 2 + 3 + 4 + 1 + 2 + 3 + 4 + 1 + 2 + 3 + 4 + 1 + 2 + 3 + 4 +

F|-----------------------------------------------------------------|
C|-----------------------------------------------------------------|
G|-----------------1-1-1-1-1-1-1-1-----------------3-3-3-3-4-4-4-4-|
C|-0-0-0-0-0-0-0-0-----------------3-3-3-3-3-3-3-3-----------------|
   1 + 2 + 3 + 4 + 1 + 2 + 3 + 4 + 1 + 2 + 3 + 4 + 1 + 2 + 3 + 4 +

F|-------------------------------------------------------------------------------------------------|
C|-------------------------------------------------------------------------------------------------|
G|-----------------1-1-1-1-1-1---------------------3-3-3-3-0-0-0-0-----------------3-3-3-3-0-0-0-0-|
C|-0-0-0-0-0-0-0-0-------------/-\-3-----3-3-3---3-----------------3-3---3-3-3-3-3-----------------|
   1 + 2 + 3 + 4 + 1 + 2 + 3 + 4 + 1 + 2 + 3 + 4 + 1 + 2 + 3 + 4 + 1 + 2 + 3 + 4 + 1 + 2 + 3 + 4 +

Outro 3:46
F|-----------------------------------------------------------------|
C|-----------------------------------------------------------------|
G|-----------------------------------------------------------------|
C|-000-000-000-000-000-000-000-000-0-0-0-0-000-000-0-0-0-0-5b--5b--|
   1 + 2 + 3 + 4 + 1 + 2 + 3 + 4 + 1 + 2 + 3 + 4 + 1 + 2 + 3 + 4 +

F|-----------------------------------------------------------------|
C|-----------------------------------------------------------------|
G|-----------------------------------------------------------------|
C|-000-000-000-000-000-000-000-000-0-0-0-0-0-0-0-0-0-0-0-0-3---2---|
   1 + 2 + 3 + 4 + 1 + 2 + 3 + 4 + 1 + 2 + 3 + 4 + 1 + 2 + 3 + 4 +

Bad Girls Club

Intro 0:17
F|-----|
C|-----|
G|-----|
C|-2-2-|

0:28
F|-----------------------------------------------------------------|
C|-----------------------------------------------------------------|
G|---------------------------------0-----0-0-----0---0---0-0-------|
C|-2-----2-2-----2---2---2-2---------------------------------------|
   1 + 2 + 3 + 4 + 1 + 2 + 3 + 4 + 1 + 2 + 3 + 4 + 1 + 2 + 3 + 4 + 

F|-----------------------------------------------------------------|
C|-----------------------------------------------------------------|
G|-4-----4-4-----4-2-----2-2---0-----------------------------------|
C|---------------------------------2-----2-2---2---2---------------|
   1 + 2 + 3 + 4 + 1 + 2 + 3 + 4 + 1 + 2 + 3 + 4 + 1 + 2 + 3 + 4 + 

Rest

Verse 0:50
F|-----------------------------------------------------------------|
C|-----------------------------------------------------------------|
G|---------------------------------0-----0-0-----0---0---0-0-------|
C|-2-----2-2-----2---2---2-2---------------------------------------|
   1 + 2 + 3 + 4 + 1 + 2 + 3 + 4 + 1 + 2 + 3 + 4 + 1 + 2 + 3 + 4 + 

F|-----------------------------------------------------------------|
C|-----------------------------------------------------------------|
G|-4-----4-4-----4-2-----2-2---0-----------------------------------|
C|---------------------------------2-----2-2-----2---2---2-2---2---|
   1 + 2 + 3 + 4 + 1 + 2 + 3 + 4 + 1 + 2 + 3 + 4 + 1 + 2 + 3 + 4 +

Pre Chorus 1:01
F|-6---------------------------------------------------------------|
C|-----------/-11--9-----------------------------------------------|
G|-----------------------------------------------------------------|
C|---------------------------------2-2-2-2-2-2-2-2-2---------------|
   1 + 2 + 3 + 4 + 1 + 2 + 3 + 4 + 1 + 2 + 3 + 4 + 1 + 2 + 3 + 4 + 

Chorus 1:07
F|-------------------------------------------------------------------|
C|o-----------------------------------------------------------------o|
G|o-----------------0-0-0-0-0-0-0-0---------------------------------o|x3
C|--2-2-2-2-2-2-2-2-----------------4-4-4-4-4-4-4-4/9-9-9-9-9-9-9-9--|
    1 + 2 + 3 + 4 + 1 + 2 + 3 + 4 + 1 + 2 + 3 + 4 + 1 + 2 + 3 + 4 + 

F|-----------------------------------------------------------------|
C|-----------------------------------------------------------------|
G|-----------------0-0-0-0-0-0-0-0---------------------------------|
C|-2-2-2-2-2-2-2-2-------------------------------------------------|
   1 + 2 + 3 + 4 + 1 + 2 + 3 + 4 + 1 + 2 + 3 + 4 + 1 + 2 + 3 + 4 + 

Interlude 1:29
F|-----------------------------------------------------------------|
C|-----------------------------------------------------------------|
G|---------------------------------0-----0-0-----0---0---0-0-------|
C|-2-----2-2-----2---2---2-2---------------------------------------|
   1 + 2 + 3 + 4 + 1 + 2 + 3 + 4 + 1 + 2 + 3 + 4 + 1 + 2 + 3 + 4 + 

F|-----------------------------------------------------------------|
C|-----------------------------------------------------------------|
G|-4-----4-4-----4-2-----2-2---0-----------------------------------|
C|---------------------------------2-----2-2---2---2---------------|
   1 + 2 + 3 + 4 + 1 + 2 + 3 + 4 + 1 + 2 + 3 + 4 + 1 + 2 + 3 + 4 + 

Rest

Verse 1:51
F|-----------------------------------------------------------------|
C|-----------------------------------------------------------------|
G|---------------------------------0-----0-0-----0---0---0-0-------|
C|-2-----2-2-----2---2---2-2---------------------------------------|
   1 + 2 + 3 + 4 + 1 + 2 + 3 + 4 + 1 + 2 + 3 + 4 + 1 + 2 + 3 + 4 + 

F|-----------------------------------------------------------------|
C|-----------------------------------------------------------------|
G|-4-----4-4-----4-2-----2-2---0-----------------------------------|
C|---------------------------------2-----2-2-----2---2---2-2---2---|
   1 + 2 + 3 + 4 + 1 + 2 + 3 + 4 + 1 + 2 + 3 + 4 + 1 + 2 + 3 + 4 +

Pre Chorus 2:02
F|-6---------------------------------------------------------------|
C|-----------/-11--9-----------9-\---------------------------------|
G|-----------------------------------------------------------------|
C|---------------------------------2-2-2-2-2-2-2-2-2---------------|
   1 + 2 + 3 + 4 + 1 + 2 + 3 + 4 + 1 + 2 + 3 + 4 + 1 + 2 + 3 + 4 + 

Chorus 2:07
F|-------------------------------------------------------------------|
C|o-----------------------------------------------------------------o|
G|o-----------------0-0-0-0-0-0-0-0---------------------------------o|x3
C|--2-2-2-2-2-2-2-2-----------------4-4-4-4-4-4-4-4/9-9-9-9-9-9-9-9--|
    1 + 2 + 3 + 4 + 1 + 2 + 3 + 4 + 1 + 2 + 3 + 4 + 1 + 2 + 3 + 4 + 

F|-----------------------------------------------------------------|
C|-----------------------------------------------------------------|
G|-----------------0-0-0-0-0-0-0-0---------------------------------|
C|-2-2-2-2-2-2-2-2-------------------------------------------------|
   1 + 2 + 3 + 4 + 1 + 2 + 3 + 4 + 1 + 2 + 3 + 4 + 1 + 2 + 3 + 4 + 

F|-----------------------------------------------------------------|
C|-----------------------------------------------------------------|
G|-7--------------(7)-------------(7)-------------(7)--------------|
C|-----------------------------------------------------------------|
   1 + 2 + 3 + 4 + 1 + 2 + 3 + 4 + 1 + 2 + 3 + 4 + 1 + 2 + 3 + 4 + 

Rest

Chorus 3:04
F|-------------------------------------------------------------------|
C|o-----------------------------------------------------------------o|
G|o-----------------0-0-0-0-0-0-0-0---------------------------------o|x3
C|--2-2-2-2-2-2-2-2-----------------4-4-4-4-4-4-4-4/9-9-9-9-9-9-9-9--|
    1 + 2 + 3 + 4 + 1 + 2 + 3 + 4 + 1 + 2 + 3 + 4 + 1 + 2 + 3 + 4 + 

F|-----------------------------------------------------------------|
C|-----------------------------------------------------------------|
G|-----------------0-0-0-0-0-0-0-0---------------------------------|
C|-2-2-2-2-2-2-2-2-------------------------------------------------|
   1 + 2 + 3 + 4 + 1 + 2 + 3 + 4 + 1 + 2 + 3 + 4 + 1 + 2 + 3 + 4 + 

Outro 3:26
F|-----------------------------------------------------------------|
C|-----------------------------------------------------------------|
G|---------------------------------0-----0-0-----0---0---0-0-------|
C|-2-----2-2-----2---2---2-2---------------------------------------|
   1 + 2 + 3 + 4 + 1 + 2 + 3 + 4 + 1 + 2 + 3 + 4 + 1 + 2 + 3 + 4 + 

F|-----------------------------------------------------------------|
C|-----------------------------------------------------------------|
G|-4-----4-4-----4-2-----2-2---0-----------------2-7---\---\---\---|
C|---------------------------------2-2---2-2---2-------------------|
   1 + 2 + 3 + 4 + 1 + 2 + 3 + 4 + 1 + 2 + 3 + 4 + 1 + 2 + 3 + 4 + 

Rolling Stone

0:11
F|---------------------------------------------------------------------|
C|---------------------------------------------------------------------|
G|---------------------5-3-----------------------------5-3-------------|
C|-12\-0---2-3-0-3-2-3-----3-2---3-2-3-0---2-3-0-3-2-3-----3-2---3-2-5-|
   4 + 1 + 2 + 3 + 4 + 1 + 2 + 3 + 4 + 1 + 2 + 3 + 4 + 1 + 2 + 3 + 4 +

F|-----------------------------------------------------------------|
C|-----------------------------------------------------------------|
G|-----------------5-3-----------------------------5-3---------5---|
C|-0---2-3-0-3-2-3-----3-2---3-2-3-0---2-3-0-3-2-3-----3-2---3-----|
   1 + 2 + 3 + 4 + 1 + 2 + 3 + 4 + 1 + 2 + 3 + 4 + 1 + 2 + 3 + 4 +

0:22 Verse
F|-----------------------------------------------------------------|
C|-----------------------------------------------------------------|
G|-----------------------------------------------------------------|
C|-0-----000-----000-0---0---0-3---0-----000-----000-0---0---0-6---|
   1 + 2 + 3 + 4 + 1 + 2 + 3 + 4 + 1 + 2 + 3 + 4 + 1 + 2 + 3 + 4 +

F|-----------------------------------------------------------------|
C|-----------------------------------------------------------------|
G|-------------------------------------------------------------3---|
C|-0-----000-----000-0---0---0-3---0-----000-----000-0---0-3-0-----|
   1 + 2 + 3 + 4 + 1 + 2 + 3 + 4 + 1 + 2 + 3 + 4 + 1 + 2 + 3 + 4 +

F|-----------------------------------------------------------------|
C|-----------------------------------------------------------------|
G|-----------------------------------------------------------------|
C|-0-----000-----000-0---0---0-3---0-----000-----000-0---0---0-6---|
   1 + 2 + 3 + 4 + 1 + 2 + 3 + 4 + 1 + 2 + 3 + 4 + 1 + 2 + 3 + 4 +

F|-----------------------------------------------------------------|
C|-----------------------------------------------------------------|
G|-----------------------------------------------------------------|
C|-0-----000-----000-0---0---0-3---0-----000-----000---------------|
   1 + 2 + 3 + 4 + 1 + 2 + 3 + 4 + 1 + 2 + 3 + 4 + 1 + 2 + 3 + 4 +

0:45 Chorus
F|-----------------------------------------------------------------|
C|-----------------------------------------------------------------|
G|-1-1-1-1-1-1-1-1-----------------3-3-3-3-3-3-3-3-----------------|
C|-----------------0-0-0-0-0-0-0-0-----------------3-3-3-3-2-2-2-2-|
   1 + 2 + 3 + 4 + 1 + 2 + 3 + 4 + 1 + 2 + 3 + 4 + 1 + 2 + 3 + 4 +

F|-----------------------------------------------------------------|
C|-----------------------------------------------------------------|
G|-1-1-1-1-1-1-1-1-----------------3-3-3-3-3-3-3-3-----------------|
C|-----------------0-0-0-0-0-0-0-0-----------------3-3-3-3-2-2-2-2-|
   1 + 2 + 3 + 4 + 1 + 2 + 3 + 4 + 1 + 2 + 3 + 4 + 1 + 2 + 3 + 4 +

F|------------------------------------------------------------------|
C|------------------------------------------------------------------|
G|-8-8-8-8-8-7-8-10-7-7-7-7-7-5-7-8-5-5-5-5-5-3-5-7-3-3-3-3-3-3-3-3-|
C|------------------------------------------------------------------|
   1 + 2 + 3 + 4 +  1 + 2 + 3 + 4 + 1 + 2 + 3 + 4 + 1 + 2 + 3 + 4 +

F|-----------------------------------------------------------------|
C|-----------------------------------------------------------------|
G|-1-1-1-1-1-1-1-1-----------------3-3-3-3-3-3-3-3-4-4-4-4-4-4-4-4-|
C|-----------------3-3-3-3-3-3-3-3---------------------------------|
   1 + 2 + 3 + 4 + 1 + 2 + 3 + 4 + 1 + 2 + 3 + 4 + 1 + 2 + 3 + 4 +

1:07 Interlude
F|-----------------------------------------------------------------|
C|-----------------------------------------------------------------|
G|-----------------5-3-----------------------------5-3-------------|
C|-0---2-3-0-3-2-3-----3-2---3-2-3-0---3---0-3-2-3-----3-2---3---5-|
   1 + 2 + 3 + 4 + 1 + 2 + 3 + 4 + 1 + 2 + 3 + 4 + 1 + 2 + 3 + 4 +

1:12 Verse
F|-----------------------------------------------------------------|
C|-----------------------------------------------------------------|
G|-----------------------------------------------------------------|
C|-0-----000-----000-0---0---0-3---0-----000-----000-0---0---0-6---|
   1 + 2 + 3 + 4 + 1 + 2 + 3 + 4 + 1 + 2 + 3 + 4 + 1 + 2 + 3 + 4 +

F|-----------------------------------------------------------------|
C|-----------------------------------------------------------------|
G|-------------------------------------------------------------3---|
C|-0-----000-----000-0---0---0-3---0-----000-----000-0---0-3-0-----|
   1 + 2 + 3 + 4 + 1 + 2 + 3 + 4 + 1 + 2 + 3 + 4 + 1 + 2 + 3 + 4 +

F|-----------------------------------------------------------------|
C|-----------------------------------------------------------------|
G|-----------------------------------------------------------------|
C|-0-----000-----000-0---0---0-3---0-----000-----000-0---0---0-6---|
   1 + 2 + 3 + 4 + 1 + 2 + 3 + 4 + 1 + 2 + 3 + 4 + 1 + 2 + 3 + 4 +

F|-----------------------------------------------------------------|
C|-----------------------------------------------------------------|
G|-----------------------------------------------------------------|
C|-0-----000-----000-0---0---0-3---0-0-0-0-0-0-0-0-12--\---\---\---|
   1 + 2 + 3 + 4 + 1 + 2 + 3 + 4 + 1 + 2 + 3 + 4 + 1 + 2 + 3 + 4 +

1:35 Chorus
F|-----------------------------------------------------------------|
C|-----------------------------------------------------------------|
G|-1-1-1-1-1-1-1-1-----------------3-3-3-3-3-3-3-3-----------------|
C|-----------------0-0-0-0-0-0-0-0-----------------3-3-3-3-2-2-2-2-|
   1 + 2 + 3 + 4 + 1 + 2 + 3 + 4 + 1 + 2 + 3 + 4 + 1 + 2 + 3 + 4 +

F|-----------------------------------------------------------------|
C|-----------------------------------------------------------------|
G|-1-1-1-1-1-1-1-1-----------------3-3-3-3-3-3-3-3-----------------|
C|-----------------0-0-0-0-0-0-0-0-----------------3-3-3-3-2-2-2-2-|
   1 + 2 + 3 + 4 + 1 + 2 + 3 + 4 + 1 + 2 + 3 + 4 + 1 + 2 + 3 + 4 +

F|------------------------------------------------------------------|
C|------------------------------------------------------------------|
G|-8-8-8-8-8-7-8-10-7-7-7-7-7-5-7-8-5-5-5-5-5-3-5-7-3-3-3-3-3-3-3-3-|
C|------------------------------------------------------------------|
   1 + 2 + 3 + 4 +  1 + 2 + 3 + 4 + 1 + 2 + 3 + 4 + 1 + 2 + 3 + 4 +

F|---------------------------------------------------------------------------------|
C|---------------------------------------------------------------------------------|
G|-1-1-1-1-1-1-1-1-----------------3-3-3-3-3-3-3-3-4-4-4-4-4-4-4-4-----------------|
C|-----------------3-3-3-3-3-3-3-3---------------------------------12--\---\---\---|
   1 + 2 + 3 + 4 + 1 + 2 + 3 + 4 + 1 + 2 + 3 + 4 + 1 + 2 + 3 + 4 + 1 + 2 + 3 + 4 +

Rap

2:18
F|-----------------------------------------------------------------|
C|-0---0---0---0---0---0---0---0---2---2---2---2---2---2---2---2---|
G|-----------------------------------------------------------------|
C|-----------------------------------------------------------------|
   1 + 2 + 3 + 4 + 1 + 2 + 3 + 4 + 1 + 2 + 3 + 4 + 1 + 2 + 3 + 4 +

F|---------------------------------------------------------------------------------|
C|-3---3---3---3---3---3---3---3---5---5---5---5-----------------------------------|
G|---------------------------------------------------------------------------------|
C|-----------------------------------------------------------------12--\-----------|
   1 + 2 + 3 + 4 + 1 + 2 + 3 + 4 + 1 + 2 + 3 + 4 + 1 + 2 + 3 + 4 + 1 + 2 + 3 + 4 +

Electronic

Breakdown 2:41
F|-----------------------------------------------------------------|
C|-----------------------------------------------------------------|
G|-----------------------------------------------------------------|
C|-12--\-----------000-000-000-000-----------------00------00--0---|
   1 + 2 + 3 + 4 + 1 + 2 + 3 + 4 + 1 + 2 + 3 + 4 + 1 + 2 + 3 + 4 +

F|-----------------------------------------------------------------|
C|-----------------------------------------------------------------|
G|-----------------------------------------------------------------|
C|-0---------------000-000-00--00------------------12--\-----------|
   1 + 2 + 3 + 4 + 1 + 2 + 3 + 4 + 1 + 2 + 3 + 4 + 1 + 2 + 3 + 4 +

Rest  

Chorus
F|----------------------------------------------------------------------------------|
C|----------------------------------------------------------------------------------|
G|-8-8-8-8-7-7-7-7-8-8-8-8-8-7-8-10-7-7-7-7-7-5-7-8-5-5-5-5-5-3-5-7-3-3-3-3-3-3-3-3-|
C|----------------------------------------------------------------------------------|
   1 + 2 + 3 + 4 + 1 + 2 + 3 + 4 +  1 + 2 + 3 + 4 + 1 + 2 + 3 + 4 + 1 + 2 + 3 + 4 +

F|-------------------------------------------------------------------------|
C|-------------------------------------------------------------------------|
G|-1-1-1-1-1-1-1-1-----------------3-3-3-3-3-3-3-3-15-15-15-15-15-15-15-15-|
C|-----------------3-3-3-3-3-3-3-3-----------------------------------------|
   1 + 2 + 3 + 4 + 1 + 2 + 3 + 4 + 1 + 2 + 3 + 4 + 1  +  2  +  3  +  4  +

Key Change
F|-----------------------------------------------------------------|
C|-----------------------------------------------------------------|
G|-3---3-3-3-3---5-------------------------------------------------|
C|-----------------2---2-2-2-2---2-0---0-0-0-0-0-0-5-5-5-5-4-4-4-4-|
   1 + 2 + 3 + 4 + 1 + 2 + 3 + 4 + 1 + 2 + 3 + 4 + 1 + 2 + 3 + 4 +

F|-----------------------------------------------------------------|
C|-----------------------------------------------------------------|
G|-3---3-3-3-3---5-7---7-7-7-7---7---------------------------------|
C|---------------------------------0---0-0-0---0---5---5---4---4---|
   1 + 2 + 3 + 4 + 1 + 2 + 3 + 4 + 1 + 2 + 3 + 4 + 1 + 2 + 3 + 4 +

F|-----------------------------------------------------------------|
C|-5---5-5-5-4-5-7-4---4-4-4-2-4-5-2---2-2-2-0-2-4-0---0---0---0---|
G|-----------------------------------------------------------------|
C|-----------------------------------------------------------------|
   1 + 2 + 3 + 4 + 1 + 2 + 3 + 4 + 1 + 2 + 3 + 4 + 1 + 2 + 3 + 4 +

F|-----------------------------------------------------------------|
C|-----------------------------------------------------------------|
G|-3---3-3-3-3---0-----------------5-5-5-5-5-5-5-5-6--6--6-6--6--6-|
C|-----------------5---5-5-5-5-5-5---------------------------------|
   1 + 2 + 3 + 4 + 1 + 2 + 3 + 4 + 1 + 2 + 3 + 4 + Triplet Triplet

3:36 Outro
F|-----------------------------------------------------------------|
C|-----------------------------------------------------------------|
G|-----------------7-5-----------------------------7-5-------------|
C|-2-2-4-5-2-5-4-5-----5-4---5-4-5-2-2-4-5-2-5-4-5-----5-4---5-4-7-|
   1 + 2 + 3 + 4 + 1 + 2 + 3 + 4 + 1 + 2 + 3 + 4 + 1 + 2 + 3 + 4 +

F|-----------------------------------------------------------------|
C|-----------------------------------------------------------------|
G|-----------------7-5-----------------------------7-5---7-5---7---|
C|-2-2-4-5-2-5-4-5-----5-4---5-4-5-2---5---2-5-4-5-----5-----5---2-|
   1 + 2 + 3 + 4 + 1 + 2 + 3 + 4 + 1 + 2 + 3 + 4 + 1 + 2 + 3 + 4 +

Fashionably Late

F|-----------------------------------------------------------------|
C|-----------------------------------------------------------------|
G|-55--------------------------------------------------------------|
C|-----------------------------------------------------------------|
   1 2 3 4 1 2 3 4 1 2 3 4 1 2 3 4 1 2 3 4 1 2 3 4 1 2 3 4 1 2 3 4

F|-----------------------------------------------------------------|
C|-----------------------------------------------------------------|
G|-55----------------------------------------------33--------------|
C|-----------------------------------------------------------0-----|
   1 2 3 4 1 2 3 4 1 2 3 4 1 2 3 4 1 2 3 4 1 2 3 4 1 2 3 4 1 2 3 4

0:19
F|-----------------------------------------------------------------|
C|-----------------------------------------------------------------|
G|-5-5-5-551-1-1-113-3-3-33--------5-5-5-551-1-1-113-3-33-3--------|
C|-------------------------3-3-2-2-------------------------3---2---|
   1 2 3 4 1 2 3 4 1 2 3 4 1 2 3 4 1 2 3 4 1 2 3 4 1 2 3 4 1 2 3 4

Verse 0:28
F|-----------------------------------------------------------------|
C|-----------------------------------------------------------------|
G|-----------------0-0----00-0----01-1----11-1----1----------------|
C|-0-0----00-0----0--------------------------------3-3----33-3-----|
   1 2 3 4 1 2 3 4 1 2 3 4 1 2 3 4 1 2 3 4 1 2 3 4 1 2 3 4 1 2 3 4

F|-----------------------------------------------------------------|
C|-----------------------------------------------------------------|
G|-----------------0-0----00-0----01-1----11-1----13-3----33-3-----|
C|-0-0----00-0----0------------------------------------------------|
   1 2 3 4 1 2 3 4 1 2 3 4 1 2 3 4 1 2 3 4 1 2 3 4 1 2 3 4 1 2 3 4

Pre Chorus 0:45
F|-----------------------------------------------------------------|
C|-----------------------------------------------------------------|
G|-11----------------------33--33--11----------------------33--33--|
C|-----------------33------------------------------33--------------|
   1 2 3 4 1 2 3 4 1 2 3 4 1 2 3 4 1 2 3 4 1 2 3 4 1 2 3 4 1 2 3 4

Chorus 0:54
F|-----------------------------------------------------------------|
C|-----------------------------------------------------------------|
G|-5-5----51-1----13-3----3--------5-5----51-1----13-3----3----7-\-|
C|-------------------------3-3-2-2-------------------------3-3-----|
   1 2 3 4 1 2 3 4 1 2 3 4 1 2 3 4 1 2 3 4 1 2 3 4 1 2 3 4 1 2 3 4

F|-----------------------------------------------------------------|
C|-----------------------------------------------------------------|
G|-5-5-5-551-1-1-113-3-3-33--------5-5-----1-1-----33--------------|
C|-------------------------3-3-2-2---------------------------------|
   1 2 3 4 1 2 3 4 1 2 3 4 1 2 3 4 1 2 3 4 1 2 3 4 1 2 3 4 1 2 3 4

Interlude 1:13
F|-----------------------------------------------------------------|
C|-----------------------------------------------------------------|
G|-5-5-5-551-1-1-113-3-3-33--------5-5-5-551-1-1-113-3-33-3-013013-|
C|-------------------------3-3-2-2-------------------------3-------|
   1 2 3 4 1 2 3 4 1 2 3 4 1 2 3 4 1 2 3 4 1 2 3 4 1 2 3 4 1 2 3 4

Verse 1:22
F|-----------------------------------------------------------------|
C|-----------------------------------------------------------------|
G|-5-5-\-\---------0-0----00-0----01-1----11-1----1------------5-\-|
C|---------0-0----0--------------------------------3-3----33-3-----|
   1 2 3 4 1 2 3 4 1 2 3 4 1 2 3 4 1 2 3 4 1 2 3 4 1 2 3 4 1 2 3 4

F|-----------------------------------------------------------------|
C|-----------------------------------------------------------------|
G|-----------------0-0----00-0----01-1----11-1----13-3----33-3-----|
C|-0-0----00-0----0------------------------------------------------|
   1 2 3 4 1 2 3 4 1 2 3 4 1 2 3 4 1 2 3 4 1 2 3 4 1 2 3 4 1 2 3 4

Pre Chorus 1:40
F|-----------------------------------------------------------------|
C|-----------------------------------------------------------------|
G|-11----------------------33--33--11----------------------33------|
C|-----------------33------------------------------33--------------|
   1 2 3 4 1 2 3 4 1 2 3 4 1 2 3 4 1 2 3 4 1 2 3 4 1 2 3 4 1 2 3 4

Chorus 1:50
F|-----------------------------------------------------------------|
C|-----------------------------------------------------------------|
G|-5-5----51-1----13-3----3--------5-5----51-1----13-3-3--3----7-\-|
C|-------------------------3-3-2-2-------------------------3-3-----|
   1 2 3 4 1 2 3 4 1 2 3 4 1 2 3 4 1 2 3 4 1 2 3 4 1 2 3 4 1 2 3 4

F|-----------------------------------------------------------------|
C|-----------------------------------------------------------------|
G|---------1-1-1-1-3-3-3-3-----------------1-1-1-1-3-3-3-3-4-4-4-4-|
C|-0-0-0-0-----------------3-3-2-2-0-0-0-0-------------------------|
   1 2 3 4 1 2 3 4 1 2 3 4 1 2 3 4 1 2 3 4 1 2 3 4 1 2 3 4 1 2 3 4

Bridge 2:07
F|-----------------------------------------------------------------|
C|-----------------------------------------------------------------|
G|-1-1-1-1-1-1-1-1---------3-3-3-3-1-1-1-1-1-1-1-1---------3---5---|
C|-----------------3-3-3-3-------------------------3-3-3-3---------|
   1 2 3 4 1 2 3 4 1 2 3 4 1 2 3 4 1 2 3 4 1 2 3 4 1 2 3 4 1 2 3 4

F|-------------------------------------------------------------------------------------|
C|-------------------------------------------------------------------------------------|
G|-1-1-1-1-1-1-1-1---------3-3-3-3-1-1-1-1-1-1-1-1-3-3-3-3-5-5-5-5-7-7-7-7/15-15-15-15-|
C|-----------------3-3-3-3-------------------------------------------------------------|
   1 2 3 4 1 2 3 4 1 2 3 4 1 2 3 4 1 2 3 4 1 2 3 4 1 2 3 4 1 2 3 4 1 2 3 4 1  2  3  4

Pre Chorus 2:27
F|-----------------------------------------------------------------|
C|-----------------------------------------------------------------|
G|-11----------------------33--33--11------------------------------|
C|-----------------33------------------------------3---------------|
   1 2 3 4 1 2 3 4 1 2 3 4 1 2 3 4 1 2 3 4 1 2 3 4 1 2 3 4 1 2 3 4

2:36
F|-----------------------------------------------------------------|
C|-----------------------------------------------------------------|
G|-55----------------------------------------------33--------------|
C|-----------------------------------------------------------------|
   1 2 3 4 1 2 3 4 1 2 3 4 1 2 3 4 1 2 3 4 1 2 3 4 1 2 3 4 1 2 3 4

Chorus 2:45
F|-----------------------------------------------------------------|
C|-----------------------------------------------------------------|
G|-5-5----51-1----13-3----3--------5-5----51-1----13-3----3----7-\-|
C|-------------------------3-3-2-2-------------------------3-3-----|
   1 2 3 4 1 2 3 4 1 2 3 4 1 2 3 4 1 2 3 4 1 2 3 4 1 2 3 4 1 2 3 4

F|-----------------------------------------------------------------|
C|-----------------------------------------------------------------|
G|---------1-1-1-1-3-3-3-3-----------------1-1-1-1-3-3-3-3-77777777|
C|-0-0-0-0-----------------3-3-2-2-0-0-0-0-------------------------|
   1 2 3 4 1 2 3 4 1 2 3 4 1 2 3 4 1 2 3 4 1 2 3 4 1 2 3 4 1 2 3 4

Outro Chorus 3:03
F|-----------------------------------------------------------------|
C|-----------------------------------------------------------------|
G|-5-5-5-551-1-1-113-3-3-33----------------1-1-1-1-3-3-13----------|
C|-------------------------3-3-2-2-0-0-0-0-----------------3-3-2-2-|
   1 2 3 4 1 2 3 4 1 2 3 4 1 2 3 4 1 2 3 4 1 2 3 4 1 2 3 4 1 2 3 4

F|-----------------------------------------------------------------|
C|-----------------------------------------------------------------|
G|-55-555-511-11-1-33-333-3----------------11-11-1-33-313----------|
C|-------------------------33-32-2-00-000-0----------------3---2---|
   1 2 3 4 1 2 3 4 1 2 3 4 1 2 3 4 1 2 3 4 1 2 3 4 1 2 3 4 1 2 3 4

Alone (Drop D tuning)

0:12
G|-----------------------------------------------------------------|
D|-0-----------------------3---------------------------------------|
A|---------------------------------0-----------------------3-------|
D|-----------------------------------------------------------------|
   1 + 2 + 3 + 4 + 1 + 2 + 3 + 4 + 1 + 2 + 3 + 4 + 1 + 2 + 3 + 4 +

G|-----------------------------------------------------------------|
D|-0-----------------------3---------------------------------------|
A|---------------------------------0-------------------------------|
D|-----------------------------------------------------------------|
   1 + 2 + 3 + 4 + 1 + 2 + 3 + 4 + 1 + 2 + 3 + 4 + 1 + 2 + 3 + 4 +

0:25
G|-----------------------------------------------------------------|
D|-----------------------------------------------------------------|
A|---------------------------------1-1-1---1-----1-----1-------1---|
D|-0-0-0---0-----0-----0---0-5-5-5---------------------------------|
   1 + 2 + 3 + 4 + 1 + 2 + 3 + 4 + 1 + 2 + 3 + 4 + 1 + 2 + 3 + 4 +

G|-----------------------------------------------------------------|
D|-----------------------------------------------------------------|
A|-3-3---3-3-----3-3---3---3-------1-1-1-1-1---1---3-3-3-3-3-0-0-0-|
D|---------------------------5-5-5---------------------------------|
   1 + 2 + 3 + 4 + 1 + 2 + 3 + 4 + 1 + 2 + 3 + 4 + 1 + 2 + 3 + 4 +

Rest

0:51
G|-----------------------------------------------------------------|
D|-0-----------------------3---------------------------------------|
A|---------------------------------0-----------------------3-------|
D|-----------------------------------------------------------------|
   1 + 2 + 3 + 4 + 1 + 2 + 3 + 4 + 1 + 2 + 3 + 4 + 1 + 2 + 3 + 4 +

G|-----------------------------------------------------------------|
D|-0-----------------------3---------------------------------------|
A|---------------------------------0-------------------------------|
D|-----------------------------------------------------------------|
   1 + 2 + 3 + 4 + 1 + 2 + 3 + 4 + 1 + 2 + 3 + 4 + 1 + 2 + 3 + 4 +

1:03
G|-----------------------------------------------------------------|
D|-----------------------------------------------------------------|
A|-----------------------------------------------------------------|
D|-000-------00-00-----0-----------000-000---00-00-----0-----00-00-|
   1 + 2 + 3 + 4 + 1 + 2 + 3 + 4 + 1 + 2 + 3 + 4 + 1 + 2 + 3 + 4 +

G|-----------------------------------------------------------------|
D|-----------------------------------------------------------------|
A|-----------------------------------------------------------------|
D|-000-------00-00-----0-----------000-000---00-00-----0-----------|
   1 + 2 + 3 + 4 + 1 + 2 + 3 + 4 + 1 + 2 + 3 + 4 + 1 + 2 + 3 + 4 +

1:16
G|------------------------------------------------------------------|
D|o-----------------------------------------------------------------|
A|o---------------------------------1-1-1---1-----1-----1-------1---|
D|--0-0-0---0-----0-----0---0-5-5-5---------------------------------|
    1 + 2 + 3 + 4 + 1 + 2 + 3 + 4 + 1 + 2 + 3 + 4 + 1 + 2 + 3 + 4 +

G|------------------------------------------------------------------|
D|-----------------------------------------------------------------o|
A|-3-3---3-3-----3-3---3---3-------1-1-1-1-1---1---3-3-3-3-3-0-0-0-o|
D|---------------------------5-5-5----------------------------------|
   1 + 2 + 3 + 4 + 1 + 2 + 3 + 4 + 1 + 2 + 3 + 4 + 1 + 2 + 3 + 4 +

Rest

1:54
G|-----------------------------------------------------------------|
D|-0-----------------------3---------------------------------------|
A|---------------------------------0-----------------------3-------|
D|-----------------------------------------------------------------|
   1 + 2 + 3 + 4 + 1 + 2 + 3 + 4 + 1 + 2 + 3 + 4 + 1 + 2 + 3 + 4 +

G|-----------------------------------------------------------------|
D|-0-----------------------3---------------------------------------|
A|---------------------------------0-------------------------------|
D|-----------------------------------------------------------------|
   1 + 2 + 3 + 4 + 1 + 2 + 3 + 4 + 1 + 2 + 3 + 4 + 1 + 2 + 3 + 4 +

2:07
G|-----------------------------------------------------------------|
D|-----------------------------------------------------------------|
A|-----------------------------------------------------------------|
D|-000-------00-00-----0-----------000-000---00-00-----0-----00-00-|
   1 + 2 + 3 + 4 + 1 + 2 + 3 + 4 + 1 + 2 + 3 + 4 + 1 + 2 + 3 + 4 +

G|-----------------------------------------------------------------|
D|-----------------------------------------------------------------|
A|-----------------------------------------------------------------|
D|-000-------00-00-----0-------------------------------------------|
   1 + 2 + 3 + 4 + 1 + 2 + 3 + 4 + 1 + 2 + 3 + 4 + 1 + 2 + 3 + 4 +

2:20
G|------------------------------------------------------------------|
D|o-----------------------------------------------------------------|
A|o---------------------------------1-1-1---1-----1-----1-------1---|
D|--0-0-0---0-----0-----0---0-5-5-5---------------------------------|
    1 + 2 + 3 + 4 + 1 + 2 + 3 + 4 + 1 + 2 + 3 + 4 + 1 + 2 + 3 + 4 +

G|------------------------------------------------------------------|
D|-----------------------------------------------------------------o|
A|-3-3---3-3-----3-3---3---3-------1-1-1-1-1---1---3-3-3-3-3-0-0-0-o|
D|---------------------------5-5-5----------------------------------|
   1 + 2 + 3 + 4 + 1 + 2 + 3 + 4 + 1 + 2 + 3 + 4 + 1 + 2 + 3 + 4 +

Rest

3:00
G|-----------------------------------------------------------------|
D|-----------------------------------------------------------------|
A|-----------------------------------------------------------------|
D|-00--------00-00-----0-----------000-000---00-00-----0-----00-00-|
   1 + 2 + 3 + 4 + 1 + 2 + 3 + 4 + 1 + 2 + 3 + 4 + 1 + 2 + 3 + 4 +

G|-----------------------------------------------------------------|
D|-----------------------------------------------------------------|
A|-----------------------------------------------------------------|
D|-00--------00-00-----0-----------000-000---00-00-----0-----00-00-|
   1 + 2 + 3 + 4 + 1 + 2 + 3 + 4 + 1 + 2 + 3 + 4 + 1 + 2 + 3 + 4 +

3:13
G|-----------------------------------------------------------------|
D|-----------------------------------------------------------------|
A|-----------------------------------------------------------------|
D|-000000000---------0000000-------000000000---0-----0000000-------|
   1 + 2 + 3 + 4 + 1 + 2 + 3 + 4 + 1 + 2 + 3 + 4 + 1 + 2 + 3 + 4 +

G|-----------------------------------------------------------------|
D|-----------------------------------------------------------------|
A|-----------------------------------------------------------------|
D|-000000000---------0000000-------000000000---0-----0000000-------|
   1 + 2 + 3 + 4 + 1 + 2 + 3 + 4 + 1 + 2 + 3 + 4 + 1 + 2 + 3 + 4 +

G|-----------------------------------------------------------------|
D|-----------------------------------------------------------------|
A|-----------------------------------------------------------------|
D|-000000000---------0000000---------------0---0-------0---0-0-0---|
   1 + 2 + 3 + 4 + 1 + 2 + 3 + 4 + 1 + 2 + 3 + 4 + 1 + 2 + 3 + 4 +

3:32
G|------------------------------------------------------------------|
D|o-----------------------------------------------------------------|
A|o---------------------------------1-1-1---1-----1-----1-------1---|
D|--0-0-0---0-----0-----0---0-5-5-5---------------------------------|
    1 + 2 + 3 + 4 + 1 + 2 + 3 + 4 + 1 + 2 + 3 + 4 + 1 + 2 + 3 + 4 +

G|------------------------------------------------------------------|
D|-----------------------------------------------------------------o|
A|-3-3---3-3-----3-3---3---3-------1-1-1-1-1---1---3-3-3-3-3-0-0-0-o|
D|---------------------------5-5-5----------------------------------|
   1 + 2 + 3 + 4 + 1 + 2 + 3 + 4 + 1 + 2 + 3 + 4 + 1 + 2 + 3 + 4 +

3:58
G|-----------------------------------------------------------------|
D|-----------------------------------------------------------------|
A|---------------------------------1-1-1---1-1-1---1-1-1---1-1-1-1-|
D|-0-0-0---0-0-0---0-0-0---0-5-5-5---------------------------------|
   1 + 2 + 3 + 4 + 1 + 2 + 3 + 4 + 1 + 2 + 3 + 4 + 1 + 2 + 3 + 4 +

G|-----------------------------------------------------------------|
D|-----------------------------------------------------------------|
A|-3-3-3---3-3-3---3-3-3---3-------1-1-1---1-1-1---3-3-3---3-0-0-0-|
D|---------------------------5-5-5---------------------------------|
   1 + 2 + 3 + 4 + 1 + 2 + 3 + 4 + 1 + 2 + 3 + 4 + 1 + 2 + 3 + 4 +

G|-----------------------------------------------------------------|
D|-----------------------------------------------------------------|
A|---------------------------------1-1-1-1-1-1-1-1-1-1-1-1-1-1-1-1-|
D|-0-0-0-0-0-0-0-0-0-0-0-0-0-5-5-5---------------------------------|
   1 + 2 + 3 + 4 + 1 + 2 + 3 + 4 + 1 + 2 + 3 + 4 + 1 + 2 + 3 + 4 +

G|-----------------------------------------------------------------|
D|-----------------------------------------------------------------|
A|-3-3-3-3-3-3-3-3-3-3-3-3-3-------1-1-1-1-1-1-1-1-3-3-0-0-3-3-0-0-|
D|---------------------------5-5-5---------------------------------|
   1 + 2 + 3 + 4 + 1 + 2 + 3 + 4 + 1 + 2 + 3 + 4 + 1 + 2 + 3 + 4 +

Born to Lead

0:17
F|-----------------------------------------------------------------|
C|-3---------------------------------------------------------------|
G|-----------------1-------5---5---3-------------------------------|
C|-----------------------------------------------------------------|
   1 + 2 + 3 + 4 + 1 + 2 + 3 + 4 + 1 + 2 + 3 + 4 + 1 + 2 + 3 + 4 +

0:23
F|-----------------------------------------------------------------|
C|-----------------------------------------------------------------|
G|-5---5---5-5-5---5---5---5-5-5---5---5---5-5-5---5---5---5-5-5---|
C|-----------------------------------------------------------------|
   1 e + a 2 e + a 3 e + a 4 e + a 1 e + a 2 e + a 3 e + a 4 e + a

F|-----------------------------------------------------------------|
C|-----------------------------------------------------------------|
G|-3---3---3-3-3---3---3---3-3-3---3---3---3-3-3---3---3---3-3-3---|
C|-----------------------------------------------------------------|
   1 e + a 2 e + a 3 e + a 4 e + a 1 e + a 2 e + a 3 e + a 4 e + a

F|-----------------------------------------------------------------|
C|-3---3---3-3-3---3---3---3-3-3-----------------------------------|
G|---------------------------------1---1---1-1-1---5---5---5-5-5---|
C|-----------------------------------------------------------------|
   1 e + a 2 e + a 3 e + a 4 e + a 1 e + a 2 e + a 3 e + a 4 e + a

F|-----------------------------------------------------------------|
C|-----------------------------------------------------------------|
G|-3-3-3-3-3-3-3-3-3-3-3-3-3-3-3-3-3-------------------------------|
C|-----------------------------------------------------------------|
   1 e + a 2 e + a 3 e + a 4 e + a 1 e + a 2 e + a 3 e + a 4 e + a

0:34 Verse
F|-----------------------------------------------------------------|
C|-----------------------------------------------------------------|
G|-5---5---5-5-5---5---5---5-5-5---5---5---5-5-5---5---5---5-5-5---|
C|-----------------------------------------------------------------|
   1 e + a 2 e + a 3 e + a 4 e + a 1 e + a 2 e + a 3 e + a 4 e + a

F|-----------------------------------------------------------------|
C|-------------------------------------------------------------2---|
G|-3---3---3-3-3---3---3---3-3-3---3---3---3-3-3---3---3---5-------|
C|-----------------------------------------------------------------|
   1 e + a 2 e + a 3 e + a 4 e + a 1 e + a 2 e + a 3 e + a 4 e + a

F|-----------------------------------------------------------------|
C|-3-3-3-3-3-3-3-3-3-3-3-3-3-3-3-3---------------------------------|
G|---------------------------------1---1---1-1-1---5---5---5-5-5---|
C|-----------------------------------------------------------------|
   1 e + a 2 e + a 3 e + a 4 e + a 1 e + a 2 e + a 3 e + a 4 e + a

F|-----------------------------------------------------------------|
C|-----------------------------------------------------------------|
G|-3---3---3-3-3---3---3---3-3-3---3---3---3-3-3---3---3---3-3-3---|
C|-----------------------------------------------------------------|
   1 e + a 2 e + a 3 e + a 4 e + a 1 e + a 2 e + a 3 e + a 4 e + a

0:45
F|-----------------------------------------------------------------|
C|-----------------------------------------------------------------|
G|-5---5---5-5-5---5---5---5-5-5---5---5---5-5-5---5---5---5-5-5---|
C|-----------------------------------------------------------------|
   1 e + a 2 e + a 3 e + a 4 e + a 1 e + a 2 e + a 3 e + a 4 e + a

F|-----------------------------------------------------------------|
C|-----------------------------------------------------------------|
G|-3---3---3-3-3---3---3---3-3-3---3---3---3-3-3---3---3---3-3-3---|
C|-----------------------------------------------------------------|
   1 e + a 2 e + a 3 e + a 4 e + a 1 e + a 2 e + a 3 e + a 4 e + a

F|-----------------------------------------------------------------|
C|-3-3-3-3-3-3-3-3-3-3-3-3-3-3-3-3---------------------------------|
G|---------------------------------1---1---1-1-1---5---5---5-5-5---|
C|-----------------------------------------------------------------|
   1 e + a 2 e + a 3 e + a 4 e + a 1 e + a 2 e + a 3 e + a 4 e + a

F|-----------------------------------------------------------------|
C|-----------------------------------------------------------------|
G|-3---3---3-3-3---3---3---3-3-3---3-3-3-3-3-3-3-3-3-3-3-3-3-3-3-3-|
C|-----------------------------------------------------------------|
   1 e + a 2 e + a 3 e + a 4 e + a 1 e + a 2 e + a 3 e + a 4 e + a

0:56 Pre Chorus
F|-----------------------------------------------------------------|
C|-----------------------------------------------------------------|
G|-1---1-1---1-1---1---1-1---1-1---0-------0-------0-------0-------|
C|-------------------------------------5-------5-------5-------5---|
   1 e + a 2 e + a 3 e + a 4 e + a 1 e + a 2 e + a 3 e + a 4 e + a

F|-----------------------------------------------------------------|
C|-----------------------------------------------------------------|
G|-3---3-3---3-3---3---3-3---3-3---5---5-5---5-5---7---7-7---7-7---|
C|-----------------------------------------------------------------|
   1 e + a 2 e + a 3 e + a 4 e + a 1 e + a 2 e + a 3 e + a 4 e + a

F|-----------------------------------------------------------------|
C|-----------------------------------------------------------------|
G|-1---1-1---1-1---1---1-1---1-1---3---3-3---3-3---3---3-3---3-3---|
C|-----------------------------------------------------------------|
   1 e + a 2 e + a 3 e + a 4 e + a 1 e + a 2 e + a 3 e + a 4 e + a

F|-----------------------------------------------------------------|
C|-----------------------------------------------------------------|
G|-----------------------------------------------------------------|
C|-3-3-3-3-3-3-3-3-3-3-3-3-3-3-3-/-15------------------------------|
   1 e + a 2 e + a 3 e + a 4 e + a 1 e + a 2 e + a 3 e + a 4 e + a

1:07 Chorus
F|-----------------------------------------------------------------|
C|-----------------------------------------------------------------|
G|-5---5---5---5---5---5---5---3h5-3---3---3---3---3---3---3---1h3-|
C|-----------------------------------------------------------------|
   1 + 2 + 3 + 4 + 1 + 2 + 3 + 4 + 1 + 2 + 3 + 4 + 1 + 2 + 3 + 4 +

F|-----------------------------------------------------------------|
C|-----------------------------------------------------------------|
G|-5---5---5---5---5---5---5---3h5-3---3---3---3---3---3---3---5h7-|
C|-----------------------------------------------------------------|
   1 + 2 + 3 + 4 + 1 + 2 + 3 + 4 + 1 + 2 + 3 + 4 + 1 + 2 + 3 + 4 +

F|-----------------------------------------------------------------|
C|-----------------------------------------------------------------|
G|-8---8---8---8p7-3---3---3---1h3-5---5---5---5---1---1---1---1---|
C|-----------------------------------------------------------------|
   1 + 2 + 3 + 4 + 1 + 2 + 3 + 4 + 1 + 2 + 3 + 4 + 1 + 2 + 3 + 4 +

F|---------------------------------------------------------------------------------|
C|---------------------------------------------------------------------------------|
G|-5---5---5---5---5---5---5---3h5-3---3---3---3---33333333333333333---------------|
C|---------------------------------------------------------------------------------|
   1 + 2 + 3 + 4 + 1 + 2 + 3 + 4 + 1 + 2 + 3 + 4 + 1 + 2 + 3 + 4 + 1 + 2 + 3 + 4 +

1:30 Verse
F|-----------------------------------------------------------------|
C|-----------------------------------------------------------------|
G|-5---5---5-5-5---5---5---5-5-5---5---5---5-5-5---5---5---5-5-5---|
C|-----------------------------------------------------------------|
   1 e + a 2 e + a 3 e + a 4 e + a 1 e + a 2 e + a 3 e + a 4 e + a

F|-----------------------------------------------------------------|
C|-------------------------------------------------------------2---|
G|-3---3---3-3-3---3---3---3-3-3---3---3---3-3-3---3---3---5-------|
C|-----------------------------------------------------------------|
   1 e + a 2 e + a 3 e + a 4 e + a 1 e + a 2 e + a 3 e + a 4 e + a

F|-----------------------------------------------------------------|
C|-3-3-3-3-3-3-3-3-3-3-3-3-3-3-3-3---------------------------------|
G|---------------------------------1---1---1-1-1---5---5---5-5-5---|
C|-----------------------------------------------------------------|
   1 e + a 2 e + a 3 e + a 4 e + a 1 e + a 2 e + a 3 e + a 4 e + a

F|-----------------------------------------------------------------|
C|-----------------------------------------------------------------|
G|-3---3---3-3-3---3---3---3-3-3---3---3---3-3-3---3---3---5---3---|
C|-----------------------------------------------------------------|
   1 e + a 2 e + a 3 e + a 4 e + a 1 e + a 2 e + a 3 e + a 4 e + a

1:41
F|-----------------------------------------------------------------|
C|-----------------------------------------------------------------|
G|-5---5---5-5-5---5---5---5-5-5---5---5---5-5-5---5---5---5-5-5---|
C|-----------------------------------------------------------------|
   1 e + a 2 e + a 3 e + a 4 e + a 1 e + a 2 e + a 3 e + a 4 e + a

F|-----------------------------------------------------------------|
C|-----------------------------------------------------------------|
G|-3---3---3-3-3---3---3---3-3-3---3---3---3-3-3---3---3---3-3-3---|
C|-----------------------------------------------------------------|
   1 e + a 2 e + a 3 e + a 4 e + a 1 e + a 2 e + a 3 e + a 4 e + a

F|-----------------------------------------------------------------|
C|-3-3-3-3-3-3-3-3-3-3-3-3-3-3-3-3---------------------------------|
G|---------------------------------1---1---1-1-1---5---5---5-5-5---|
C|-----------------------------------------------------------------|
   1 e + a 2 e + a 3 e + a 4 e + a 1 e + a 2 e + a 3 e + a 4 e + a

F|-----------------------------------------------------------------|
C|-----------------------------------------------------------------|
G|-3---3---3-3-3---3---3---3-3-3-----------------------------------|
C|---------------------------------10------\-------\-------\-------|
   1 e + a 2 e + a 3 e + a 4 e + a 1 e + a 2 e + a 3 e + a 4 e + a

Pre Chorus
F|-----------------------------------------------------------------|
C|-----------------------------------------------------------------|
G|-1---1-1---1-1---1---1-1---1-1---0-------0-------0-------0-------|
C|-------------------------------------5-------5-------5-------5---|
   1 e + a 2 e + a 3 e + a 4 e + a 1 e + a 2 e + a 3 e + a 4 e + a

F|-----------------------------------------------------------------|
C|-----------------------------------------------------------------|
G|-3---3-3---3-3---3---3-3---3-3---5---5-5---5-5---7---7-7---7-7---|
C|-----------------------------------------------------------------|
   1 e + a 2 e + a 3 e + a 4 e + a 1 e + a 2 e + a 3 e + a 4 e + a

F|-----------------------------------------------------------------|
C|-----------------------------------------------------------------|
G|-1---1-1---1-1---1---1-1---1-1---3---3-3---3-3---3---3-3---3-3---|
C|-----------------------------------------------------------------|
   1 e + a 2 e + a 3 e + a 4 e + a 1 e + a 2 e + a 3 e + a 4 e + a

F|-----------------------------------------------------------------|
C|-----------------------------------------------------------------|
G|-----------------------------------------------------------------|
C|-3-3-3-3-3-3-3-3-3-3-3-3-3-3-3-/-15------------------------------|
   1 e + a 2 e + a 3 e + a 4 e + a 1 e + a 2 e + a 3 e + a 4 e + a

2:03 Chorus
F|-----------------------------------------------------------------|
C|-----------------------------------------------------------------|
G|-5---5---5---5---5---5---5---3h5-3---3---3---3---3---3---3---1h3-|
C|-----------------------------------------------------------------|
   1 + 2 + 3 + 4 + 1 + 2 + 3 + 4 + 1 + 2 + 3 + 4 + 1 + 2 + 3 + 4 +

F|-----------------------------------------------------------------|
C|-----------------------------------------------------------------|
G|-5---5---5---5---5---5---5---3h5-3---3---3---3---3---3---3---5h7-|
C|-----------------------------------------------------------------|
   1 + 2 + 3 + 4 + 1 + 2 + 3 + 4 + 1 + 2 + 3 + 4 + 1 + 2 + 3 + 4 +

F|-----------------------------------------------------------------|
C|-----------------------------------------------------------------|
G|-8---8---8---8p7-3---3---3---1h3-5---5---5---5---1---1---1---1---|
C|-----------------------------------------------------------------|
   1 + 2 + 3 + 4 + 1 + 2 + 3 + 4 + 1 + 2 + 3 + 4 + 1 + 2 + 3 + 4 +

F|-----------------------------------------------------------------|
C|-----------------------------------------------------------------|
G|-5---5---5---5---5---5---5---3h5-3---3---3---3---3333333333333333|
C|-----------------------------------------------------------------|
   1 + 2 + 3 + 4 + 1 + 2 + 3 + 4 + 1 + 2 + 3 + 4 + 1 + 2 + 3 + 4 +

Interlude
F|-----------------------------------------------------------------|
C|-----------------------------------------------------------------|
G|-3-----------------------------------------------------------3---|
C|-----------------------------5---0-------------------------------|
   1 + 2 + 3 + 4 + 1 + 2 + 3 + 4 + 1 + 2 + 3 + 4 + 1 + 2 + 3 + 4 +

Bass Solo
F|-------------------------------------------------5----------------------|
C|-------------5--------5--7-----5--7--8--5--7--8-----7--8--7--8----------|
G|-5--5--7--8-----7--8--------8-----------------------------------3-------|
C|------------------------------------------------------------------------|
   Triplet  Triplet  Triplet  Triplet  Triplet  Triplet  Triplet  4 e + a

F|-----------------------------------------------------------------|
C|-----------------------------------------------------------------|
G|-----------------0-----------------------------------------------|
C|-0-------------------5---3---2-----------------------------------|
   1 + 2 + 3 + 4 + 1 + 2 + 3 + 4 + 1 + 2 + 3 + 4 + 1 + 2 + 3 + 4 +

2:40 Solo
F|-----------------------------------------------------------------|
C|-----------------------------------------------------------------|
G|-5---5---5-5-5---5---5---5-5-5---5---5---5-5-5---5---5---5-5-5---|
C|-----------------------------------------------------------------|
   1 e + a 2 e + a 3 e + a 4 e + a 1 e + a 2 e + a 3 e + a 4 e + a

F|-----------------------------------------------------------------|
C|-----------------------------------------------------------------|
G|-3---3---3-3-3---3---3---3-3-3---3---3---3-3-3---3---3---3-3-3---|
C|-----------------------------------------------------------------|
   1 e + a 2 e + a 3 e + a 4 e + a 1 e + a 2 e + a 3 e + a 4 e + a

F|-----------------------------------------------------------------|
C|-----------------------------------------------------------------|
G|-1---1---1-1-1---1---1---1-1-1---0---0---0-0-0---0---0---0-0-0---|
C|-----------------------------------------------------------------|
   1 e + a 2 e + a 3 e + a 4 e + a 1 e + a 2 e + a 3 e + a 4 e + a

F|-----------------------------------------------------------------|
C|-----------------------------------------------------------------|
G|-----------------------------------------------------------------|
C|-0---0---0-0-0---0---0---0-0-0---0---0---0-0-0---0---0---0-0-0---|
   1 e + a 2 e + a 3 e + a 4 e + a 1 e + a 2 e + a 3 e + a 4 e + a

2:50
F|-----------------------------------------------------------------|
C|-----------------------------------------------------------------|
G|-5-5-5-5-5-5-5-5-5-5-5-5-5-5-5-5-5-5-5-5-5-5-5-5-5-5-5-5-5-5-5-5-|
C|-----------------------------------------------------------------|
   1 e + a 2 e + a 3 e + a 4 e + a 1 e + a 2 e + a 3 e + a 4 e + a

F|-----------------------------------------------------------------|
C|-----------------------------------------------------------------|
G|-3-3-3-3-3-3-3-3-3-3-3-3-3-3-3-3-3-3-3-3-3-3-3-3-3-3-3-3-3-3-3-3-|
C|-----------------------------------------------------------------|
   1 e + a 2 e + a 3 e + a 4 e + a 1 e + a 2 e + a 3 e + a 4 e + a

F|-----------------------------------------------------------------|
C|-----------------------------------------------------------------|
G|-1-1-1-1-1-1-1-1-1-1-1-1-1-1-1-1-0-0-0-0-0-0-0-0-0-0-0-0-0-0-0-0-|
C|-----------------------------------------------------------------|
   1 e + a 2 e + a 3 e + a 4 e + a 1 e + a 2 e + a 3 e + a 4 e + a

F|-----------------------------------------------------------------|
C|-----------------------------------------------------------------|
G|-----------------------------------------------------------------|
C|-0-0-0-0-0-0-0-0-0-0-0-0-0-0-0-0-0-0-0-0-0-0-0-0-0-0-0-0-0-0-0-0-|
   1 e + a 2 e + a 3 e + a 4 e + a 1 e + a 2 e + a 3 e + a 4 e + a

Bridge 3:01
F|-----------------------------------------------------------------|
C|-----------------------------------------------------------------|
G|---------------------------------3---3-3---3-3---3---3-3---3-3---|
C|-3---3-3---3-3---3---3-3---3-3-----------------------------------|
   1 e + a 2 e + a 3 e + a 4 e + a 1 e + a 2 e + a 3 e + a 4 e + a

F|-----------------------------------------------------------------|
C|-----------------------------------------------------------------|
G|-5---5-5---5-5---5---5-5---5-5---1---1-1---1-1---1---1-1---1-1---|
C|-----------------------------------------------------------------|
   1 e + a 2 e + a 3 e + a 4 e + a 1 e + a 2 e + a 3 e + a 4 e + a

F|-----------------------------------------------------------------|
C|-----------------------------------------------------------------|
G|-5---5-5---5-5---5---5-5---5-5---3---3-3---3-3---3---3-3---3-3---|
C|-----------------------------------------------------------------|
   1 e + a 2 e + a 3 e + a 4 e + a 1 e + a 2 e + a 3 e + a 4 e + a

F|-----------------------------------------------------------------|
C|-----------------------------------------------------------------|
G|-1---1-1---1-1---1---1-1---1-1---0---0-0---0-0---0---0-0---0-0---|
C|-----------------------------------------------------------------|
   1 e + a 2 e + a 3 e + a 4 e + a 1 e + a 2 e + a 3 e + a 4 e + a

3:13 2nd Solo
F|-----------------------------------------------------------------|
C|-----------------------------------------------------------------|
G|-5-5-5-5-5-5-5-5-5-5-5-5-5-5-5-5-5-5-5-5-5-5-5-5-5-5-5-5-5-5-5-5-|
C|-----------------------------------------------------------------|
   1 e + a 2 e + a 3 e + a 4 e + a 1 e + a 2 e + a 3 e + a 4 e + a

F|-----------------------------------------------------------------|
C|-----------------------------------------------------------------|
G|-7-7-7-7-7-7-7-7-7-7-7-7-7-7-7-7-7-7-7-7-7-7-7-7-7-7-7-7-7-7-7-7-|
C|-----------------------------------------------------------------|
   1 e + a 2 e + a 3 e + a 4 e + a 1 e + a 2 e + a 3 e + a 4 e + a

F|-----------------------------------------------------------------|
C|-----------------------------------------------------------------|
G|-8-8-8-8-8-8-8-8-8-8-8-8-8-8-8-8-1-1-1-1-1-1-1-1-0-0-0-0-0-0-0-0-|
C|-----------------------------------------------------------------|
   1 e + a 2 e + a 3 e + a 4 e + a 1 e + a 2 e + a 3 e + a 4 e + a

F|-----------------------------------------------------------------|
C|-----------------------------------------------------------------|
G|-----------------------------------------------------------------|
C|-0-0-0-0-0-0-0-0-0-0-0-0-0-0-0-0-0-0-0-0-0-0-0-0-0-0-0-0-0-0-0-0-|
   1 e + a 2 e + a 3 e + a 4 e + a 1 e + a 2 e + a 3 e + a 4 e + a

Breakdown 3:23
F|-----------------------------------------------------------------|
C|-----------------------------------------------------------------|
F|-------------------------------------------------3---------------|
C|-----------------------------------------------------------------|
   1 e + a 2 e + a 3 e + a 4 e + a 1 e + a 2 e + a 3 e + a 4 e + a

F|------------------------------------------------------------------|
C|o-----------------------------------------------------------------|
F|o-----------------------------------------------------------------|
C|--0-0-----0-0-----0-0-----0-0-0-3-----0---0-0---------0-0-0-0-0-0-|
    1 e + a 2 e + a 3 e + a 4 e + a 1 e + a 2 e + a 3 e + a 4 e + a

F|------------------------------------------------------------------|
C|-----------------------------------------------------------------o|
F|-------------------------------------------------5---------------o|
C|-5-5-----5-5---------5---5-5-5-3-----3---3-3---------3---3-3------|
   1 e + a 2 e + a 3 e + a 4 e + a 1 e + a 2 e + a 3 e + a 4 e + a

F|---------------------------------------------------------------------|
C|---------------------------------------------------------------------|
F|---------------------------------------------------------------------|
C|-8-8-8-8-7-7-7-7-5-5-5-5-3-3-3-3-10-10-10-10-8-8-8-8-7-7-7-7-5-5-5-5-|
   1 e + a 2 e + a 3 e + a 4 e + a 1  e  +  a  2 e + a 3 e + a 4 e + a

F|-----------------------------------|
C|-----------------------------------|
F|-1--------3-----4--5---\-----------|
C|----2--3-----3---------------------|
   Tripl et Tripl et 1 + 2 + 3 + 4 +

3:43
F|-----------------------------------------------------------------|
C|-----------------------------------------------------------------|
F|-----------------------------------------------------------------|
C|-0--0--0-0--0--0-0---------------0-0-----0-0-----0-0-----0-0-----|
   Triplet Triplet 3 e + a 4 e + a 1 e + a 2 e + a 3 e + a 4 e + a

F|------------------------------------------------------------------------|
C|------------------------------------------------------------------------|
F|-------------------------------------------------1--------------3-------|
C|-0--0--0-0--0--0-0--0--0-0--0--0-7-7-7-7-6-6-6-6------2----3------------|
   Triplet Triplet Triplet Triplet 1 e + a 2 e + a Tri  pl   et   5 e + a 

F|-------------------------------------------------------------------------|
C|-------------------------------------------------------------------------|
F|-------------------------------------------------------------------------|
C|-0---------------0-0---------------------0-0-----0-0-----0-0-----0---0---|
   1 e + a 2 e + a 3 e + a 4 e + a 5 e + a 1 e + a 2 e + a 3 e + a 4 e + a

F|-----------------------------------------------------------------|
C|-----------------------------------------------------------------|
F|---------------------------------5---\---------------------------|
C|-----3---2---3---5---3---2---0-----------------------------------|
   1 e + a 2 e + a 3 e + a 4 e + a 1 e + a 2 e + a 3 e + a 4 e + a

F|-----------------------------------------------------------------|
C|-----------------------------------------------------------------|
F|-----------------------------------------------------------------|
C|-1-------------------------------0-------------------------------|
   1 e + a 2 e + a 3 e + a 4 e + a 1 e + a 2 e + a 3 e + a 4 e + a

F|-----------------------------------------------------------------|
C|-----------------------------------------------------------------|
F|-----------------------------------------------------------------|
C|-0-0-0-0-0-0-0-0-0-0-0-0-0-0-0-0-0--0--0-0--0--0-0--0--0-0--0--0|
   1 e + a 2 e + a 3 e + a 4 e + a Triplet Triplet Triplet Triplet

F|-----------------------------------------------------------------|
C|-----------------------------------------------------------------|
G|---------------------------------1-------3-----4-5--\------------|
C|-1--1--1-1--1--1-1-------1----------2--3----3--------------------|
   Triplet Triplet 1 + 2 + 3 + 4 + Triplet Triplet 1 + 2 + 3 + 4 +

4:06 Chorus
F|-----------------------------------------------------------------|
C|-----------------------------------------------------------------|
G|-5---5---5-5-5---5---5---5-5-5---5---5---5-5-5---5---5---5-5-5---|
C|-----------------------------------------------------------------|
   1 e + a 2 e + a 3 e + a 4 e + a 1 e + a 2 e + a 3 e + a 4 e + a

F|-----------------------------------------------------------------|
C|-----------------------------------------------------------------|
G|-3---3---3-3-3---3---3---3-3-3---3---3---3---1---1---1---1---3---|
C|-----------------------------------------------------------------|
   1 e + a 2 e + a 3 e + a 4 e + a 1 e + a 2 e + a 3 e + a 4 e + a

F|-----------------------------------------------------------------|
C|-----------------------------------------------------------------|
G|-5---5---5-5-5---5---5---5-5-5---5---5---5-5-5---5---5---5-5-5---|
C|-----------------------------------------------------------------|
   1 e + a 2 e + a 3 e + a 4 e + a 1 e + a 2 e + a 3 e + a 4 e + a

F|-----------------------------------------------------------------|
C|-----------------------------------------------------------------|
G|-3---3---3-3-3---3---3---3-3-3---3---3---3-3-3---3---3---3-3-3---|
C|-----------------------------------------------------------------|
   1 e + a 2 e + a 3 e + a 4 e + a 1 e + a 2 e + a 3 e + a 4 e + a

4:16
F|-----------------------------------------------------------------|
C|-----------------------------------------------------------------|
G|-8-8-8-8-8-8-8-8-8-8-8-8-8-8-8-8-3-3-3-3-3-3-3-3-3-3-3-3-3-3-3-3-|
C|-----------------------------------------------------------------|
   1 e + a 2 e + a 3 e + a 4 e + a 1 e + a 2 e + a 3 e + a 4 e + a

F|-----------------------------------------------------------------|
C|-----------------------------------------------------------------|
G|-5-5-5-5-5-5-5-5-5-5-5-5-5-5-5-5-1-1-1-1-1-1-1-1-1-1-1-1-1-1-1-1-|
C|-----------------------------------------------------------------|
   1 e + a 2 e + a 3 e + a 4 e + a 1 e + a 2 e + a 3 e + a 4 e + a

F|-----------------------------------------------------------------|
C|-----------------------------------------------------------------|
G|-5-5-5-5-5-5-5-5-5-5-5-5-5-5-5-5-5-5-5-5-5-5-5-5-5-5-5-5-5-5-5-5-|
C|-----------------------------------------------------------------|
   1 e + a 2 e + a 3 e + a 4 e + a 1 e + a 2 e + a 3 e + a 4 e + a

F|---------------------------------2---0---------------------------|
C|-----------------------------------------3---2---3---2-----------|
G|-3-3-3-3-3-3-3-3-3-3-3-3-3-3-3-3-------------------------5---3---|
C|-----------------------------------------------------------------|
   1 e + a 2 e + a 3 e + a 4 e + a 1 e + a 2 e + a 3 e + a 4 e + a

4:28
F|-----------------------------------------------------------------|
C|-----------------------------------------------------------------|
F|-----------------------------------------------------------------|
C|-0---0---0---0---0---0---0---0---0---0---0---0---0---0---0---0---|
   1 e + a 2 e + a 3 e + a 4 e + a 1 e + a 2 e + a 3 e + a 4 e + a

F|-----------------------------------------------------------------|
C|-----------------------------------------------------------------|
G|-3---3---3---3---3---3---3---3---3---3---3---3---3---3---3---3---|
C|-----------------------------------------------------------------|
   1 e + a 2 e + a 3 e + a 4 e + a 1 e + a 2 e + a 3 e + a 4 e + a

F|-----------------------------------------------------------------|
C|-----------------------------------------------------------------|
F|-----------------------------------------------------------------|
C|-0---0---0---0---0---0---0---0---0---0---0---0---0---0---0---0---|
   1 e + a 2 e + a 3 e + a 4 e + a 1 e + a 2 e + a 3 e + a 4 e + a

F|-----------------------------------------------------------------|
C|-----------------------------------------------------------------|
G|-3---3---3---3---3---3---3---3---3-3-3-3-3-3-3-3-3-3-3-3-3-3-3-3-|
C|-----------------------------------------------------------------|
   1 e + a 2 e + a 3 e + a 4 e + a 1 e + a 2 e + a 3 e + a 4 e + a

4:38
F|-----------------------------------------------------------------|
C|-----------------------------------------------------------------|
G|-8---8---8---8---8---8---8---8---3---3---3---3---3---3---3---3---|
C|-----------------------------------------------------------------|
   1 e + a 2 e + a 3 e + a 4 e + a 1 e + a 2 e + a 3 e + a 4 e + a

F|-----------------------------------------------------------------|
C|-----------------------------------------------------------------|
G|-5---5---5---5---5---5---5---5---1---1---1---1---1---1---1---1---|
C|-----------------------------------------------------------------|
   1 e + a 2 e + a 3 e + a 4 e + a 1 e + a 2 e + a 3 e + a 4 e + a

F|-----------------------------------------------------------------|
C|-----------------------------------------------------------------|
G|-5---5---5---5---5---5---5---5---5---5---5---5---5---5---5---5---|
C|-----------------------------------------------------------------|
   1 e + a 2 e + a 3 e + a 4 e + a 1 e + a 2 e + a 3 e + a 4 e + a

F|-----------------------------------------------------------------|
C|-----------------------------------------------------------------|
G|-3---3---3---3---3---3---3---3---3--3--3-3--3--3-3--3--3-3--3--3-|
C|-----------------------------------------------------------------|
   1 e + a 2 e + a 3 e + a 4 e + a Triplet Triplet Triplet Triplet

4:50 Outro
F|-----------------------------------------------------------------|
C|-----------------------------------------------------------------|
F|-----------------------------------------------------------------|
C|-0---0---0---0---0---0---0---0---0---0---0---0---0---0---0---0---|
   1 e + a 2 e + a 3 e + a 4 e + a 1 e + a 2 e + a 3 e + a 4 e + a

F|-----------------------------------------------------------------|
C|-----------------------------------------------------------------|
G|-3---3---3---3---3---3---3---3---3---3---3---3---3---3---3---3---|
C|-----------------------------------------------------------------|
   1 e + a 2 e + a 3 e + a 4 e + a 1 e + a 2 e + a 3 e + a 4 e + a

F|-----------------------------------------------------------------|
C|-----------------------------------------------------------------|
F|-----------------------------------------------------------------|
C|-0---0---0---0---0---0---0---0---0---0---0---0---0---0---0---0---|
   1 e + a 2 e + a 3 e + a 4 e + a 1 e + a 2 e + a 3 e + a 4 e + a

F|-----------------------------------------------------------------|
C|-----------------------------------------------------------------|
G|-3---3---3---3---3---3---3---3---3-3-3-3-3-3-3-3-3-3-3-3-3-3-3-3-|
C|-----------------------------------------------------------------|
   1 e + a 2 e + a 3 e + a 4 e + a 1 e + a 2 e + a 3 e + a 4 e + a

4:38
F|-----------------------------------------------------------------|
C|-----------------------------------------------------------------|
G|-8---8---8---8---8---8---8---8---3---3---3---3---3---3---3---3---|
C|-----------------------------------------------------------------|
   1 e + a 2 e + a 3 e + a 4 e + a 1 e + a 2 e + a 3 e + a 4 e + a

F|-----------------------------------------------------------------|
C|-----------------------------------------------------------------|
G|-5---5---5---5---5---5---5---5---1---1---1---1---1---1---1---1---|
C|-----------------------------------------------------------------|
   1 e + a 2 e + a 3 e + a 4 e + a 1 e + a 2 e + a 3 e + a 4 e + a

F|-----------------------------------------------------------------|
C|-----------------------------------------------------------------|
G|-5---5---5---5---5---5---5---5---5---5---5---5---5---5---5---5---|
C|-----------------------------------------------------------------|
   1 e + a 2 e + a 3 e + a 4 e + a 1 e + a 2 e + a 3 e + a 4 e + a

F|-----------------------------------------------------------------|
C|-----------------------------------------------------------------|
G|-3---3---3---3---3---3---3---3---3--3--3-3--3--3-3--3--3-3--3--3-|
C|-----------------------------------------------------------------|
   1 e + a 2 e + a 3 e + a 4 e + a Triplet Triplet Triplet Triplet

It's Over When It's Over

Verse 0:05
F|-----------------------------------------------------------------|
C|-----------------------------------------------------------------|
G|-----------------------------------------------------------------|
C|-2-----2-------------2-----------2--2--2-------------2-----------|
   1 + 2 + 3 + 4 + 1 + 2 + 3 + 4 + Triplet 3 + 4 + 1 + 2 + 3 + 4 +

F|-----------------------------------------------------------------|
C|-----------------------------------------------------------------|
G|-----------------------------------------------------------------|
C|-0-----0-------------0-----------0--0--0-------------0-----0-0---|
   1 + 2 + 3 + 4 + 1 + 2 + 3 + 4 + Triplet 3 + 4 + 1 + 2 + 3 + 4 +

F|-----------------------------------------------------------------|
C|---------------------5---4-2-0-----------------------5---4-2-0---|
G|--------/7------------------------------/7-----------------------|
C|-2-----2-------------------------2--2--2-------------------------|
   1 + 2 + 3 + 4 + 1 + 2 + 3 + 4 + Triplet 3 + 4 + 1 + 2 + 3 + 4 +

F|-----------------------------------------------------------------|
C|---------------------4---4-2-0-----------------------4---4-5-7-5-|
G|--------/5------------------------------/5-----------------------|
C|-0-----0-------------------------0--0--0-------------------------|
   1 + 2 + 3 + 4 + 1 + 2 + 3 + 4 + Triplet 3 + 4 + 1 + 2 + 3 + 4 +

Pre Chorus 0:32
F|-----------------------------------------------------------------|
C|-----------------------------------------------------------------|
G|-3-3-3-3-3-3-3-3-3-3-3-3-3-3-3-3-3-3-3-3-3-3-3-3-3-3-3-3-5-5-5-5-|
C|-----------------------------------------------------------------|
   1 + 2 + 3 + 4 + 1 + 2 + 3 + 4 + 1 + 2 + 3 + 4 + 1 + 2 + 3 + 4 +

F|-----------------------------------------------------------------|
C|-----------------------------------------------------------------|
G|---------------------------------2-2-2-2-2-2-2-2-5-5-5-5-5-5-5-5-|
C|-2-2-2-2-2-2-2-2-2-2-2-2-2-2-2-2---------------------------------|
   1 + 2 + 3 + 4 + 1 + 2 + 3 + 4 + 1 + 2 + 3 + 4 + 1 + 2 + 3 + 4 +

Chorus 0:46
F|-----------------------------------------------------------------|
C|-----------------------------------------------------------------|
G|-----------------------------0-2-3-3-3-3-3-3-3-3-3-3-3-3-3-3-7-7-|
C|-2-2-2-2-2-2-2-2-2-2-2-2-2-2-------------------------------------|
   1 + 2 + 3 + 4 + 1 + 2 + 3 + 4 + 1 + 2 + 3 + 4 + 1 + 2 + 3 + 4 +

F|-----------------------------------------------------------------|
C|-----------------------------------------------------------------|
G|-5-5-5-5-5-5-5-5-5-5-5-5-5-5-5-5---------------------------------|
C|---------------------------------5-5-5-5-5-5-5-5-4-4-4-4-4-5-7-5-|
   1 + 2 + 3 + 4 + 1 + 2 + 3 + 4 + 1 + 2 + 3 + 4 + 1 + 2 + 3 + 4 +

F|-----------------------------------------------------------------|
C|-----------------------------------------------------------------|
G|-----------------------------0-2-3-3-3-3-3-3-3-3-3-3-3-3-3-3-7-7-|
C|-2-2-2-2-2-2-2-2-2-2-2-2-2-2-------------------------------------|
   1 + 2 + 3 + 4 + 1 + 2 + 3 + 4 + 1 + 2 + 3 + 4 + 1 + 2 + 3 + 4 +

F|-----------------------------------------------------------------|
C|-----------------------------------------------------------------|
G|-5-5-5-5-5-5-5-5-5-5-5-5-5-5-5-5---------------------------------|
C|---------------------------------5-5-5-5-5-5-5-5-4-4-4-4-4-5-7-5-|
   1 + 2 + 3 + 4 + 1 + 2 + 3 + 4 + 1 + 2 + 3 + 4 + 1 + 2 + 3 + 4 +

Interlude
F|-----------------------------------------------------------------|
C|-----------------------------------------------------------------|
G|-----------------------------------------------------------------|
C|-2---------------------------------------------------------------|
   1 + 2 + 3 + 4 + 1 + 2 + 3 + 4 + 1 + 2 + 3 + 4 + 1 + 2 + 3 + 4 +

Verse 1:19
F|-----------------------------------------------------------------|
C|-----------------------------------------------------------------|
G|-----------------------------------------------------------------|
C|-2-----2-------------2-----------2--2--2-------------2-----------|
   1 + 2 + 3 + 4 + 1 + 2 + 3 + 4 + Triplet 3 + 4 + 1 + 2 + 3 + 4 +

F|-----------------------------------------------------------------|
C|-----------------------------------------------------------------|
G|-----------------------------------------------------------------|
C|-0-----0-------------0-----------0--0--0-------------0-----0-0---|
   1 + 2 + 3 + 4 + 1 + 2 + 3 + 4 + Triplet 3 + 4 + 1 + 2 + 3 + 4 +

F|-----------------------------------------------------------------|
C|---------------------5---4-2-0-----------------------5---4-2-0---|
G|--------/7------------------------------/7-----------------------|
C|-2-----2-------------------------2--2--2-------------------------|
   1 + 2 + 3 + 4 + 1 + 2 + 3 + 4 + Triplet 3 + 4 + 1 + 2 + 3 + 4 +

F|-----------------------------------------------------------------|
C|---------------------4---4-2-0-----------------------4---4-5-7-5-|
G|--------/5------------------------------/5-----------------------|
C|-0-----0-------------------------0--0--0-------------------------|
   1 + 2 + 3 + 4 + 1 + 2 + 3 + 4 + Triplet 3 + 4 + 1 + 2 + 3 + 4 +


Pre Chorus 1:44
F|-----------------------------------------------------------------|
C|-----------------------------------------------------------------|
G|-3-3-3-3-3-3-3-3-3-3-3-3-3-3-3-3-3-3-3-3-3-3-3-3-3-3-3-3-5-5-5-5-|
C|-----------------------------------------------------------------|
   1 + 2 + 3 + 4 + 1 + 2 + 3 + 4 + 1 + 2 + 3 + 4 + 1 + 2 + 3 + 4 +

F|-----------------------------------------------------------------|
C|-----------------------------------------------------------------|
G|---------------------------------2-2-2-2-2-2-2-2-5-5-5-5-5-5-5-5-|
C|-2-2-2-2-2-2-2-2-2-2-2-2-2-2-2-2---------------------------------|
   1 + 2 + 3 + 4 + 1 + 2 + 3 + 4 + 1 + 2 + 3 + 4 + 1 + 2 + 3 + 4 +

Chorus 1:57
F|-----------------------------------------------------------------|
C|-----------------------------------------------------------------|
G|-----------------------------0-2-3-3-3-3-3-3-3-3-3-3-3-3-3-3-7-7-|
C|-2-2-2-2-2-2-2-2-2-2-2-2-2-2-------------------------------------|
   1 + 2 + 3 + 4 + 1 + 2 + 3 + 4 + 1 + 2 + 3 + 4 + 1 + 2 + 3 + 4 +

F|-----------------------------------------------------------------|
C|-----------------------------------------------------------------|
G|-5-5-5-5-5-5-5-5-5-5-5-5-5-5-5-5---------------------------------|
C|---------------------------------5-5-5-5-5-5-5-5-4-4-4-4-4-5-7-5-|
   1 + 2 + 3 + 4 + 1 + 2 + 3 + 4 + 1 + 2 + 3 + 4 + 1 + 2 + 3 + 4 +

F|-----------------------------------------------------------------|
C|-----------------------------------------------------------------|
G|-----------------------------0-2-3-3-3-3-3-3-3-3-3-3-3-3-3-3-7-7-|
C|-2-2-2-2-2-2-2-2-2-2-2-2-2-2-------------------------------------|
   1 + 2 + 3 + 4 + 1 + 2 + 3 + 4 + 1 + 2 + 3 + 4 + 1 + 2 + 3 + 4 +

F|-----------------------------------------------------------------|
C|-----------------------------------------------------------------|
G|-5-5-5-5-5-5-5-5-5-5-5-5-5-5-5-5---------------------------------|
C|---------------------------------5-5-5-5-5-5-5-5-4-4-4-4-4-5-7-5-|
   1 + 2 + 3 + 4 + 1 + 2 + 3 + 4 + 1 + 2 + 3 + 4 + 1 + 2 + 3 + 4 +

Bridge 2:24
F|------------------------------------------------------------------|
C|o---------------------------------------------------------------4-|
G|o-3-3-3-3-3-3-3-3-3-3-3-3-3-3-7-7-5-5-5-5-5-5-5-5-5-5-5-5-5-7-8---|
C|------------------------------------------------------------------|
    1 + 2 + 3 + 4 + 1 + 2 + 3 + 4 + 1 + 2 + 3 + 4 + 1 + 2 + 3 + 4 +

F|------------------------------------------------------------------|
C|-5-5-5-5-5-5-7-7-4-4-4-4-4-4-5-5---------------------------------o|
G|---------------------------------7-7-7-7-7-7-7-7-5-5-5-5-5-5-5-5-o|
C|------------------------------------------------------------------|
   1 + 2 + 3 + 4 + 1 + 2 + 3 + 4 + 1 + 2 + 3 + 4 + 1 + 2 + 3 + 4 +

2:50
F|-----------------------------------------------------------------|
C|-----------------------------------------------------------------|
G|-7---\---------------------------7---\---------------------------|
C|-----------------------------------------------------------------|
   1 + 2 + 3 + 4 + 1 + 2 + 3 + 4 + 1 + 2 + 3 + 4 + 1 + 2 + 3 + 4 +

Chorus 2:57
F|-----------------------------------------------------------------|
C|-----------------------------------------------------------------|
G|---------------------------------3-3-3---3-----3---3-3---3-3-3---|
C|-2-2-2---2-----2---2-2---2-2-2-----------------------------------|
   1 + 2 + 3 + 4 + 1 + 2 + 3 + 4 + 1 + 2 + 3 + 4 + 1 + 2 + 3 + 4 +

F|-----------------------------------------------------------------|
C|-----------------------------------------------------------------|
G|-5-5-5---5-----5---5-5---5-5-5-----------------------------------|
C|---------------------------------5-5-5---5-5-5---4-4-4---4-5-7-5-|
   1 + 2 + 3 + 4 + 1 + 2 + 3 + 4 + 1 + 2 + 3 + 4 + 1 + 2 + 3 + 4 +

F|-----------------------------------------------------------------|
C|-----------------------------------------------------------------|
G|---------------------------------3-3-3---3-----3---3-3---3-3-7---|
C|-2-2-2---2-----2---2-2---2-2-2-----------------------------------|
   1 + 2 + 3 + 4 + 1 + 2 + 3 + 4 + 1 + 2 + 3 + 4 + 1 + 2 + 3 + 4 +

F|-----------------------------------------------------------------|
C|-----------------------------------------------------------------|
G|-5-5-5---5-----5---5-5---5-5-5-3---------------------------------|
C|---------------------------------5-5-5-5-5-5-5-5-4-4-4-4-4-4-4-4-|
   1 + 2 + 3 + 4 + 1 + 2 + 3 + 4 + 1 + 2 + 3 + 4 + 1 + 2 + 3 + 4 +

Outro
F|-----------------------------------------------------------------|
C|-----------------------------------------------------------------|
G|-----------------------------0-2-3-3---3-3-3---3-3-3---3-3-3-7-7-|
C|-2-2---2-2-2---2-2-2---2-2-2-------------------------------------|
   1 + 2 + 3 + 4 + 1 + 2 + 3 + 4 + 1 + 2 + 3 + 4 + 1 + 2 + 3 + 4 +

F|-----------------------------------------------------------------|
C|-----------------------------------------------------------------|
G|-5-5---5-5-5---5-5-5---5-5-5-5-3---------------------------------|
C|---------------------------------5-5-5-5-5-5-5-5-4-4-4-4-4-4-4-4-|
   1 + 2 + 3 + 4 + 1 + 2 + 3 + 4 + 1 + 2 + 3 + 4 + 1 + 2 + 3 + 4 +

F|-----------------------------------------------------------------|
C|-----------------------------------------------------------------|
G|-----------------------------------------------------------------|
C|-2---------------------------------------------------------------|
   1 + 2 + 3 + 4 + 1 + 2 + 3 + 4 + 1 + 2 + 3 + 4 + 1 + 2 + 3 + 4 +

Game Over

Verse 0:22
F|-----------------------------------------------------------------|
C|-----------------------------------------------------------------|
G|-----------------------------------------------------------------|
C|-5---5-----------5---5-----------2---2-----------2---2-----------|
   1 + 2 + 3 + 4 + 1 + 2 + 3 + 4 + 1 + 2 + 3 + 4 + 1 + 2 + 3 + 4 +

F|-----------------------------------------------------------------|
C|---------------------------------------------------------5---5-7-|
G|-3---3-----------5---5-------------------------------5-7---7-----|
C|---------------------------------5---5---------------------------|
   1 + 2 + 3 + 4 + 1 + 2 + 3 + 4 + 1 + 2 + 3 + 4 + 1 + 2 + 3 + 4 +

F|-----------------------------------------------------------------|
C|-----------------------------------------------------------------|
G|-----------------------------------------------------------------|
C|-5---5-----------5---5-----------2---2-----------2---2-----------|
   1 + 2 + 3 + 4 + 1 + 2 + 3 + 4 + 1 + 2 + 3 + 4 + 1 + 2 + 3 + 4 +

F|-----------------------------------------------------------------|
C|-----------------------------------------------------------------|
G|-3---3-----------5---5-------------------------------------------|
C|---------------------------------5---5---------------------------|
   1 + 2 + 3 + 4 + 1 + 2 + 3 + 4 + 1 + 2 + 3 + 4 + 1 + 2 + 3 + 4 +

Pre Chorus 0:40
F|-----------------------------------------------------------------|
C|-----------------------------------------------------------------|
G|-3---3---3---3---3---3---3---3---5---5---5---5---5---\-----------|
C|-----------------------------------------------------------------|
   1 + 2 + 3 + 4 + 1 + 2 + 3 + 4 + 1 + 2 + 3 + 4 + 1 + 2 + 3 + 4 +

Chorus 0:45
F|-----------------------------------------------------------------|
C|-----------------------------------------------------------------|
G|---------------------------------------------------------0-2-----|
C|-5---5-----------5---5---2-0-----2---2-----------2---2-----------|
   1 + 2 + 3 + 4 + 1 + 2 + 3 + 4 + 1 + 2 + 3 + 4 + 1 + 2 + 3 + 4 +

F|-----------------------------------------------------------------|
C|-----------------------------------------------------------------|
G|-3---3-----------3---3---5-7-----5---5-----------5---3---2---0---|
C|-----------------------------------------------------------------|
   1 + 2 + 3 + 4 + 1 + 2 + 3 + 4 + 1 + 2 + 3 + 4 + 1 + 2 + 3 + 4 +

F|-----------------------------------------------------------------|
C|-----------------------------------------------------------------|
G|---------------------------------------------------------0-2-----|
C|-5---5-----------5---5---2-0-----2---2-----------2---2-----------|
   1 + 2 + 3 + 4 + 1 + 2 + 3 + 4 + 1 + 2 + 3 + 4 + 1 + 2 + 3 + 4 +

F|-----------------------------------------------------------------|
C|-----------------------------------------------------------------|
G|-3---3---3---3---3---3---3---3---5---5---5---5---5---\-----------|
C|-----------------------------------------------------------------|
   1 + 2 + 3 + 4 + 1 + 2 + 3 + 4 + 1 + 2 + 3 + 4 + 1 + 2 + 3 + 4 +

Rest

Verse 1:12
F|-----------------------------------------------------------------|
C|-5---5-----------5---5-------------------------------------------|
G|---------------------------------7---7-----------7---7-----------|
C|-----------------------------------------------------------------|
   1 + 2 + 3 + 4 + 1 + 2 + 3 + 4 + 1 + 2 + 3 + 4 + 1 + 2 + 3 + 4 +

F|-----------------------------------------------------------------|
C|---------------------------------5---5-------------------5---5-7-|
G|-3---3-----------5---5-------------------------------5-7---7-----|
C|-----------------------------------------------------------------|
   1 + 2 + 3 + 4 + 1 + 2 + 3 + 4 + 1 + 2 + 3 + 4 + 1 + 2 + 3 + 4 +

F|-----------------------------------------------------------------|
C|-5---5-----------5---5-------------------------------------------|
G|---------------------------------7---7-----------7---7-----------|
C|-----------------------------------------------------------------|
   1 + 2 + 3 + 4 + 1 + 2 + 3 + 4 + 1 + 2 + 3 + 4 + 1 + 2 + 3 + 4 +

F|-----------------------------------------------------------------|
C|---------------------------------5---5---------------------------|
G|-3---3-----------5---5-------------------------------------------|
C|-----------------------------------------------------------------|
   1 + 2 + 3 + 4 + 1 + 2 + 3 + 4 + 1 + 2 + 3 + 4 + 1 + 2 + 3 + 4 +

Pre Chorus 1:29
F|-----------------------------------------------------------------|
C|-----------------------------------------------------------------|
G|-3---3---3---3---3---3---3---3---5---5---5---5---5---\-----------|
C|-----------------------------------------------------------------|
   1 + 2 + 3 + 4 + 1 + 2 + 3 + 4 + 1 + 2 + 3 + 4 + 1 + 2 + 3 + 4 +

Chorus 1:34
F|-----------------------------------------------------------------|
C|-----------------------------------------------------------------|
G|---------------------------------------------------------0-2-----|
C|-5---5-----------5---5---2-0-----2---2-----------2---2-----------|
   1 + 2 + 3 + 4 + 1 + 2 + 3 + 4 + 1 + 2 + 3 + 4 + 1 + 2 + 3 + 4 +

F|-----------------------------------------------------------------|
C|-----------------------------------------------------------------|
G|-3---3-----------3---3---5-7-----5---5-----------5---3---2---0---|
C|-----------------------------------------------------------------|
   1 + 2 + 3 + 4 + 1 + 2 + 3 + 4 + 1 + 2 + 3 + 4 + 1 + 2 + 3 + 4 +

F|-----------------------------------------------------------------|
C|-----------------------------------------------------------------|
G|---------------------------------------------------------0-2-----|
C|-5---5-----------5---5---2-0-----2---2-----------2---2-----------|
   1 + 2 + 3 + 4 + 1 + 2 + 3 + 4 + 1 + 2 + 3 + 4 + 1 + 2 + 3 + 4 +

F|-----------------------------------------------------------------|
C|-----------------------------------------------------------------|
G|-3---3---3---3---3---3---3---3---5---5---5---5---5---5---/---\---|
C|-----------------------------------------------------------------|
   1 + 2 + 3 + 4 + 1 + 2 + 3 + 4 + 1 + 2 + 3 + 4 + 1 + 2 + 3 + 4 +

Bridge 1:52
F|-----------------------------------------------------------------|
C|-----------------------------------------------------------------|
G|-3-3-3-3-3---------------3-3---3-5-5-5-5-5---------------5-5-----|
C|---------------------------------------------------------------7-|
   1 + 2 + 3 + 4 + 1 + 2 + 3 + 4 + 1 + 2 + 3 + 4 + 1 + 2 + 3 + 4 +

F|-----------------------------------------------------------------|
C|-----------------------------------------------------------------|
G|-----------------------------------------------------------------|
C|-5-5-5-5-5---------------5-5-----2-2-2-2-2-------2-2-2-2-2---2---|
   1 + 2 + 3 + 4 + 1 + 2 + 3 + 4 + 1 + 2 + 3 + 4 + 1 + 2 + 3 + 4 +

F|-----------------------------------------------------------------|
C|-----------------------------------------------------------------|
G|-3---3---3---3---3---3---3---3---5---5---5---5---5---5---5---5---|
C|-----------------------------------------------------------------|
   1 + 2 + 3 + 4 + 1 + 2 + 3 + 4 + 1 + 2 + 3 + 4 + 1 + 2 + 3 + 4 +

F|-----------------------------------------------------------------|
C|-----------------------------------------------------------------|
G|-----------------------------------------------------------------|
C|-5---5---5---5---5---5---5---5---2---2---2---2---2---2---2---2---|
   1 + 2 + 3 + 4 + 1 + 2 + 3 + 4 + 1 + 2 + 3 + 4 + 1 + 2 + 3 + 4 +

F|-----------------------------------------------------------------|
C|-----------------------------------------------------------------|
G|-3---3---3---3---3---3---3---3-/-17--17--17--17--17--\-----------|
C|-----------------------------------------------------------------|
   1 + 2 + 3 + 4 + 1 + 2 + 3 + 4 + 1 + 2 + 3 + 4 + 1 + 2 + 3 + 4 +

Rest

Chorus 2:26
F|-----------------------------------------------------------------|
C|-----------------------------------------------------------------|
G|---------------------------------------------------------0-2-----|
C|-5---5-----------5---5---2-0-----2---2-----------2---2-----------|
   1 + 2 + 3 + 4 + 1 + 2 + 3 + 4 + 1 + 2 + 3 + 4 + 1 + 2 + 3 + 4 +

F|-----------------------------------------------------------------|
C|-----------------------------------------------------------------|
G|-3---3-----------3---3---5-7-----5---5-----------5---3---2---0---|
C|-----------------------------------------------------------------|
   1 + 2 + 3 + 4 + 1 + 2 + 3 + 4 + 1 + 2 + 3 + 4 + 1 + 2 + 3 + 4 +

F|-----------------------------------------------------------------|
C|-----------------------------------------------------------------|
G|---------------------------------------------------------0-2-----|
C|-5---5-----------5---5---2-0-----2---2-----------2---2-----------|
   1 + 2 + 3 + 4 + 1 + 2 + 3 + 4 + 1 + 2 + 3 + 4 + 1 + 2 + 3 + 4 +

F|-----------------------------------------------------------------|
C|---------------------------------------------------------5---5-7-|
G|-3---3---3---3---3---3---3---3---5---5---5---5---5---5-----7-----|
C|-----------------------------------------------------------------|
   1 + 2 + 3 + 4 + 1 + 2 + 3 + 4 + 1 + 2 + 3 + 4 + 1 + 2 + 3 + 4 +

Outro Chorus 2:45
F|-----------------------------------------------------------------|
C|-----------------------------------------------------------------|
G|-----------------------------------------------------------------|
C|-5---5---5---5---5---5---5---5---2---2---2---2---2---2---2---2---|
   1 + 2 + 3 + 4 + 1 + 2 + 3 + 4 + 1 + 2 + 3 + 4 + 1 + 2 + 3 + 4 +

F|-----------------------------------------------------------------|
C|---------------------------------------------------------5---5-7-|
G|-3---3---3---3---3---3---3---3---5---5---5---5---5---5-7---7-----|
C|-----------------------------------------------------------------|
   1 + 2 + 3 + 4 + 1 + 2 + 3 + 4 + 1 + 2 + 3 + 4 + 1 + 2 + 3 + 4 +

F|-----------------------------------------------------------------|
C|-----------------------------------------------------------------|
G|-----------------------------------------------------------------|
C|-5---5---5---5---5---5---5---5---2---2---2---2---2---2---2---2---|
   1 + 2 + 3 + 4 + 1 + 2 + 3 + 4 + 1 + 2 + 3 + 4 + 1 + 2 + 3 + 4 +

F|-----------------------------------------------------------------|
C|-----------------------------------------------------------------|
G|-3---3---3---3---3---3---3---3---5---5---5---5---5---\-----------|
C|-----------------------------------------------------------------|
   1 + 2 + 3 + 4 + 1 + 2 + 3 + 4 + 1 + 2 + 3 + 4 + 1 + 2 + 3 + 4 +

Self-Destruct Personality

Intro
F|---------------------------------------------------------------------------------------------------|
C|---------------------------------------------------------------------------------------------------|
G|---------------------------------------------------------------------------------------------------|
C|12\-0-0-0-0-0-0-0-0-0-0-0-0-0-0-0-0-0-0-0-0-0-0-0-0-0-0-0-0-0-0-0-0-0-0-0-0-0-0-0-0-0-0-0-0-0-0-0-0|
   4 + Trplt Trplt Trplt Trplt Trplt Trplt Trplt Trplt Trplt Trplt Trplt Trplt Trplt Trplt Trplt Trplt

F|-------------------------------------------------------------------------------------------------|
C|-------------------------------------------------------------------------------------------------|
G|-------------------------------------------------------------------------------------------------|
C|-0-0-0-0-0-0-0-0-0-0-0-0-0-0-0-0-0-0-0-0-0-0-0-0-0-0-0-0-0-0-0-0-0-0-0-0-7-7-7-5-5-5-3-3-3-2-2-2-|
   Trplt Trplt Trplt Trplt Trplt Trplt Trplt Trplt Trplt Trplt Trplt Trplt Trplt Trplt Trplt Trplt

Verse 0:12 
F|-------------------------------------------------------------------------------------|
C|o-----------------------------------------------------------------------------------o|
G|o-----------------------------------0-------------------------------------1---0-0-0-o|
C|--0---0-0-0-0---0-0-0---------0-3-5---5-3-0---0-0-0-0---0-0-0-3-3-3-2-2-2------------|
    1 + Trplt 3 + Trplt 1 + 2 + Trplt Trplt 1 + Trplt 3 + Trplt Trplt Trplt 3 + Trplt

Pre Chorus 0:23
F|-------------------------------------------------------------------------------------------------|
C|-------------------------------------------------------------------------------------------------|
G|-------------------------------------------------------------------------3-3-3-1-1-1-3-3-3-3-3-3-|
C|-0-0-0-0-0-0-0-0-0-0-0-0-0-0-0-0-0-0-0-0-0-0-0-0-0-0-0-0-0-0-0-0-0-0-0-0-------------------------|
   Trplt Trplt Trplt Trplt Trplt Trplt Trplt Trplt Trplt Trplt Trplt Trplt Trplt Trplt Trplt Trplt

F|-----------------------------------------------------------------------------------------|
C|-----------------------------------------------------------------------------------------|
G|-----------------------------------------------------------------------------------------|
C|-0-0-0-0-0-0-0-0-0-0-0-0-0-0-0-0-0-0-0-0-0-0-0-0-5-5-5-5-5-5-5-5-5-5-5-5-3---------------|
   Trplt Trplt Trplt Trplt Trplt Trplt Trplt Trplt Trplt Trplt Trplt Trplt 1 + 2 + 3 + 4 +

Chorus 0:34
F|---------------------------------------------------------------------------------|
C|---------------------------------------------------------------------------------|
G|---------------------3--3-3--3-3--3-3--3-1--1-1--1-1--1-1--1-1--1-0--0------5--6-|
C|-3--3-3--3-3--3-3--3---------------------------------------------------5--5------|
   1  + 2  + 3  + 4  + 1  + 2  + 3  + 4  + 1  + 2  + 3  + 4  + 1  + 2  + 3  + 4  +

F|---------------------------------------------------------------------------------|
C|---------------------------------------------------------------------------------|
G|-8--8-8--8-8--8-8--8-3--3-3--3-3--3-3--3-1--1-1--1-1--1-1--1-1--1-3--3-5--5-6--6-|
C|---------------------------------------------------------------------------------|
   1  + 2  + 3  + 4  + 1  + 2  + 3  + 4  + 1  + 2  + 3  + 4  + 1  + 2  + 3  + 4  +

F|---------------------------------------------------------------------------------|
C|---------------------------------------------------------------------------------|
G|-8--8-8--8-8--8-8--8-3--3-3--3-3--3-3--3-1--1-1--1-1--1-1--1-1--1-1--1-1--1-1--1-|
C|---------------------------------------------------------------------------------|
   1  + 2  + 3  + 4  + 1  + 2  + 3  + 4  + 1  + 2  + 3  + 4  + 1  + 2  + 3  + 4  +

F|-------------------------------------------------------------------------------------|
C|-------------------------------------------------------------8-8-8-7-7-7-8-8-8-8-8-8-|
G|---------------------3--3-3--3-3--3-3--3-1--1-1--1-1--1-1--1-------------------------|
C|-3--3-3--3-3--3-3--3-----------------------------------------------------------------|
   1  + 2  + 3  + 4  + 1  + 2  + 3  + 4  + 1  + 2  + 3  + 4  + Trplt Trplt Trplt Trplt

Interlude 0:57
F|-----------------------------------------------------------------------------------------|
C|-----------------------------------------------------------------------------------------|
G|-------------------------------------------------------------------------3-------3---5---|
C|-0-0-0-0-0-0-0-0-0-0-0-0-0-0-0-0-0-0-0-0-0-0-0-0-0-0-0-0-0-0-0-0-0-0-0-0-----3-----------|
   Trplt Trplt Trplt Trplt Trplt Trplt Trplt Trplt Trplt Trplt Trplt Trplt 1 + 2 + 3 + 4 +

Verse 1:03
F|-------------------------------------------------------------------------------------|
C|o-----------------------------------------------------------------------------------o|
G|o-----------------------------------0-------------------------------------1---0-0-0-o|
C|--0---0-0-0-0---0-0-0---------0-3-5---5-3-0---0-0-0-0---0-0-0-3-3-3-2-2-2------------|
    1 + Trplt 3 + Trplt 1 + 2 + Trplt Trplt 1 + Trplt 3 + Trplt Trplt Trplt 3 + Trplt

Pre Chorus 1:14
F|-------------------------------------------------------------------------------------------------|
C|-------------------------------------------------------------------------------------------------|
G|-------------------------------------------------------------------------3-3-3-1-1-1-3-3-3-3-3-3-|
C|-0-0-0-0-0-0-0-0-0-0-0-0-0-0-0-0-0-0-0-0-0-0-0-0-0-0-0-0-0-0-0-0-0-0-0-0-------------------------|
   Trplt Trplt Trplt Trplt Trplt Trplt Trplt Trplt Trplt Trplt Trplt Trplt Trplt Trplt Trplt Trplt

F|-------------------------------------------------------------------------------------------|
C|-------------------------------------------------------------------------------------------|
G|-------------------------------------------------------------------------3--3--3--3--3--3--|
C|-0-0-0-0-0-0-0-0-0-0-0-0-0-0-0-0-0-0-0-0-0-0-0-0-5-5-5-5-5-5-5-5-5-5-5-5-------------------|
   Trplt Trplt Trplt Trplt Trplt Trplt Trplt Trplt Trplt Trplt Trplt Trplt Triplet  Triplet

Chorus 1:27
F|---------------------------------------------------------------------------------|
C|---------------------------------------------------------------------------------|
G|---------------------3--3-3--3-3--3-3--3-1--1-1--1-1--1-1--1-1--1-0--0------5--6-|
C|-3--3-3--3-3--3-3--3---------------------------------------------------5--5------|
   1  + 2  + 3  + 4  + 1  + 2  + 3  + 4  + 1  + 2  + 3  + 4  + 1  + 2  + 3  + 4  +

F|---------------------------------------------------------------------------------|
C|---------------------------------------------------------------------------------|
G|-8--8-8--8-8--8-8--8-3--3-3--3-3--3-3--3-1--1-1--1-1--1-1--1-1--1-3--3-5--5-6--6-|
C|---------------------------------------------------------------------------------|
   1  + 2  + 3  + 4  + 1  + 2  + 3  + 4  + 1  + 2  + 3  + 4  + 1  + 2  + 3  + 4  +

F|---------------------------------------------------------------------------------|
C|---------------------------------------------------------------------------------|
G|-8--8-8--8-8--8-8--8-3--3-3--3-3--3-3--3-1--1-1--1-1--1-1--1-1--1-1--1-1--1-1--1-|
C|---------------------------------------------------------------------------------|
   1  + 2  + 3  + 4  + 1  + 2  + 3  + 4  + 1  + 2  + 3  + 4  + 1  + 2  + 3  + 4  +

F|-------------------------------------------------------------------------------------|
C|-------------------------------------------------------------8-8-8-7-7-7-8-8-8-8-8-8-|
G|---------------------3--3-3--3-3--3-3--3-1--1-1--1-1--1-1--1-------------------------|
C|-3--3-3--3-3--3-3--3-----------------------------------------------------------------|
   1  + 2  + 3  + 4  + 1  + 2  + 3  + 4  + 1  + 2  + 3  + 4  + Trplt Trplt Trplt Trplt

Rap Intro 1:50
F|-----------------------------------------------------------------|
C|-----------------------------------------------------------------|
G|-----------------------------------------------------------------|
C|-0---------------------------------------------------------------|
   1 + 2 + 3 + 4 + 1 + 2 + 3 + 4 + 1 + 2 + 3 + 4 + 1 + 2 + 3 + 4 +

F|-----------------------------------------------------------------|
C|-----------------------------------------------------------------|
G|-----------------------------------------------------------------|
C|-0---0---0---0---0---0---0---0---0-0-0-0-0-0-0-0-0-0-0-0-0-0-0-0-|
   1 + 2 + 3 + 4 + 1 + 2 + 3 + 4 + 1 + 2 + 3 + 4 + 1 + 2 + 3 + 4 +

Rap 2:01
F|-----------------------------------------------------------------|
C|-----------------------------------------------------------------|
G|-------------------------------3-5-------------------------------|
C|-0---------------------------------------------------------------|
   1 + 2 + 3 + 4 + 1 + 2 + 3 + 4 + 1 + 2 + 3 + 4 + 1 + 2 + 3 + 4 +

F|-------------------------------------------------------------------|
C|-------------------------------------------------------------------|
G|-------------------------------3-5---------------------------------|
C|-0-------------------------------------------------------0-0-0-0---|
   1 + 2 + 3 + 4 + 1 + 2 + 3 + 4 + 1 + 2 + 3 + 4 + 1 + 2 + Trplt 4 +

F|-----------------------------------------------------------------|
C|-----------------------------------------------------------------|
G|-------------------------------3-5-------------------------------|
C|-0---------------------------------------------------------------|
   1 + 2 + 3 + 4 + 1 + 2 + 3 + 4 + 1 + 2 + 3 + 4 + 1 + 2 + 3 + 4 +

F|-------------------------------------------------------------------------|
C|-------------------------------------------------------------------------|
G|-5-5---------------------------3-5---------------5-5-5-3-3-3-5-5-5-3-3-3-|
C|-------------------------------------------------------------------------|
   1 + 2 + 3 + 4 + 1 + 2 + 3 + 4 + 1 + 2 + 3 + 4 + Trplt Trplt Trplt Trplt

Solo 2:23
F|-------------------------------------------------------------------------------------------------|
C|-------------------------------------------------------------------------------------------------|
G|-------------------------------------------------------------------------------------------------|
C|-0-0-0-0-0-0-0-0-0-0-0-0-0-0-0-3-3-3-5-5-5-7-7-7-0-0-0-0-0-0-0-0-0-0-0-0-3-3-3-2-2-2-3-3-3-2-2-2-|
   Trplt Trplt Trplt Trplt Trplt Trplt Trplt Trplt Trplt Trplt Trplt Trplt Trplt Trplt Trplt Trplt

F|-----------------------------------------------------------------------------------------|
C|-------------------------------------------------------------------------12p11---12--\---|
G|-----------------------------------------------------------------------------------------|
C|-0-0-0-0-0-0-0-0-0-0-0-0-0-0-0-3-3-3-5-5-5-7-7-7-0-0-0-0-0-0-0-0-0-0-0-0-----------------|
   Trplt Trplt Trplt Trplt Trplt Trplt Trplt Trplt Trplt Trplt Trplt Trplt 1 + 2 + 3 + 4 +

2:34
F|-------------------------------------------------------------------------------------|
C|-------------------------------------------------------------------------------------|
G|-----------------------------------0-------------------------------------1-1-1-0-0-0-|
C|-0---0-0-0-0---0-0-0---------0-3-5---5-3-0---0-0-0-0---0-0-0-3-3-3-2-2-2-------------|
   1 + Trplt 3 + Trplt 1 + 2 + Trplt Trplt 1 + Trplt 3 + Trplt Trplt Trplt Trplt Trplt

F|---------------------------------------------------------------------------------|
C|---------------------------------------------------------------------------------|
G|-----------------------------------0---------------------------------------------|
C|-0---0-0-0-0---0-0-0---------0-3-5---5-3-0---0-0-0-0---0-0-0-3-3-3-2-2-2-8--\----|
   1 + Trplt 3 + Trplt 1 + 2 + Trplt Trplt 1 + Trplt 3 + Trplt Trplt Trplt 3 + 4 +

Chorus 2:46
F|---------------------------------------------------------------------------------|
C|---------------------------------------------------------------------------------|
G|---------------------3--3-3--3-3--3-3--3-1--1-1--1-1--1-1--1-1--1-0--0------5--6-|
C|-3--3-3--3-3--3-3--3---------------------------------------------------5--5------|
   1  + 2  + 3  + 4  + 1  + 2  + 3  + 4  + 1  + 2  + 3  + 4  + 1  + 2  + 3  + 4  +

F|---------------------------------------------------------------------------------|
C|---------------------------------------------------------------------------------|
G|-8--8-8--8-8--8-8--8-3--3-3--3-3--3-3--3-1--1-1--1-1--1-1--1-1--1-3--3-5--5-6--6-|
C|---------------------------------------------------------------------------------|
   1  + 2  + 3  + 4  + 1  + 2  + 3  + 4  + 1  + 2  + 3  + 4  + 1  + 2  + 3  + 4  +

F|-------------------------------------------------------------------|
C|o-----------------------------------------------------------------o|
G|o-----------------3---3---x-3-----1---1---x-1-----1---0-----------o|
C|--3---3---x-3---------------------------------------------5---1----|
    1 + 2 + 3 + 4 + 1 + 2 + 3 + 4 + 1 + 2 + 3 + 4 + 1 + 2 + 3 + 4 +


Outro 3:08
F|-----------------------------------------------------------------|
C|-----------------------------------------------------------------|
G|-----------------------------------------------------------------|
C|-0---0-0---0-0---0---0-0---0-0---0---0-0---0-0---0-------12--\---|
   1 + 2 + 3 + 4 + 1 + 2 + 3 + 4 + 1 + 2 + 3 + 4 + 1 + 2 + 3 + 4 +

F|-----------------------------------------------------------------|
C|-----------------------------------------------------------------|
G|-----------------------------------------------------------------|
C|-0---0-----0000000--0--0-----------------------------------------|
   1 + 2 + 3 + 4 + Triplet 3 + 4 + 1 + 2 + 3 + 4 + 1 + 2 + 3 + 4 +

F|-----------------------------------------------------------------|
C|-----------------------------------------------------------------|
G|---------------------------------------------------------3-0---0-|
C|-00--00----0000000--0--0-0-0-2---0---------0000000--0--0-----5---|
   1 + 2 + 3 + 4 + Triplet 3 + 4 + 1 + 2 + 3 + 4 + Triplet 3 + 4 +

Repeat Until End
F|------------------------------------------------------------------|
C|o-----------------------------------------------------------------|
G|o-----------------------------------------------------------------|
C|--12\-0-----0000000--0--0-----------------------------------------|
    1 + 2 + 3 + 4 + Triplet 3 + 4 + 1 + 2 + 3 + 4 + 1 + 2 + 3 + 4 +

F|------------------------------------------------------------------|
C|-----------------------------------------------------------------o|
G|---------------------------------------------------------3-0---0-o|
C|-00--00----0000000--0--0-0-0-2---0---------0000000--0--0-----5----|
   1 + 2 + 3 + 4 + Triplet 3 + 4 + 1 + 2 + 3 + 4 + Triplet 3 + 4 +

Fuck the Rest

Intro 0:24
F|-------------------------------------------------------------------|
C|o-----------------------------------------------------------------o|
G|o-------------0---0-0-0-0-0-------2-2-2-2-2-2-6-7-2-4-2-4-7---7-\-o|
C|--2-2-2-2-2-2---2--------------------------------------------------|
    1 + 2 + 3 + 4 + 1 + 2 + 3 + 4 + 1 + 2 + 3 + 4 + 1 + 2 + 3 + 4 +

Verse 0:35
F|-----------------------------------------------------------------|
C|-----------------------------------------------------------------|
G|-------------0---0-0-0-0-0-------2-2-2-2-2-2-6-7-2-4-2-4-7-------|
C|-2-2-2-2-2-2---2-------------------------------------------------|
   1 + 2 + 3 + 4 + 1 + 2 + 3 + 4 + 1 + 2 + 3 + 4 + 1 + 2 + 3 + 4 +

F|-------------------------------------------------------------------|
C|o-----------------------------------------------------------------o|
G|o-------------0---0-0-0-0-0-------2-2-2-2-2-2-6-7-2-4-2-4-7---7-\-o|x3
C|--2-2-2-2-2-2---2--------------------------------------------------|
    1 + 2 + 3 + 4 + 1 + 2 + 3 + 4 + 1 + 2 + 3 + 4 + 1 + 2 + 3 + 4 +

Pre Chorus 0:58
F|-----------------------------------------------------------------|
C|-----------------------------------------------------------------|
G|-----------------0-0-0-0-0-0-0-0-7-7-7-7-7-7-7-7-2-2-2-2-2-2-2-2-|
C|-6-6-6-6-6-6-6-6-------------------------------------------------|
   1 + 2 + 3 + 4 + 1 + 2 + 3 + 4 + 1 + 2 + 3 + 4 + 1 + 2 + 3 + 4 +

F|-----------------------------------------------------------------|
C|-6-6-6-6-6-6-6-6-7-7-7-7-7-7-7-7---------------------------------|
G|---------------------------------7-7-7-7-7-7-7-7-2-2-2-2-2-2-2-2-|
C|-----------------------------------------------------------------|
   1 + 2 + 3 + 4 + 1 + 2 + 3 + 4 + 1 + 2 + 3 + 4 + 1 + 2 + 3 + 4 +

Chorus 1:10
F|-----------------------------------------------------------------|
C|-----------------------------------------------------------------|
G|-----------------2---2---------2-0---0---------0-0---0-----------|
C|-2---2---------2-----------------------------------------7-9-7-6-|
   1 + 2 + 3 + 4 + 1 + 2 + 3 + 4 + 1 + 2 + 3 + 4 + 1 + 2 + 3 + 4 +

F|-----------------------------------------------------------------|
C|-----------------------------------------------------------------|
G|-----------------2-2-2-2-2-2-2-2-0---0---------0-0---0-----------|
C|-2-2-2-2-2-2-2-2-----------------------------------------7-9-7-6-|
   1 + 2 + 3 + 4 + 1 + 2 + 3 + 4 + 1 + 2 + 3 + 4 + 1 + 2 + 3 + 4 +

F|-------------------------------------------------------------------|
C|o-----------------------------------------------------------------o|
G|o-----------------2---2---2---2---0---0---0---0---0---0-----------o|
C|--2---2---2---2-------------------------------------------7-9-7-6--|
    1 + 2 + 3 + 4 + 1 + 2 + 3 + 4 + 1 + 2 + 3 + 4 + 1 + 2 + 3 + 4 +

Interlude 1:32
F|-----------------------------------------------------------------|
C|-----------------------------------------------------------------|
G|-------------0---0-0-0-0-0-------2-2-2-2-2-2-6-7-2-4-2-4-7---7-7\|
C|-2-2-2-2-2-2---2-------------------------------------------------|
   1 + 2 + 3 + 4 + 1 + 2 + 3 + 4 + 1 + 2 + 3 + 4 + 1 + 2 + 3 + 4 +

Verse 1:38
F|-----------------------------------------------------------------|
C|---------------------------------------------------------2-1-----|
G|-----------------0-0-0-0-0-7-7---2-2-2-2-2-2-2-2-2-4-2-4-----4-2-|
C|-2-2-2-2-2-2-2-2-------------------------------------------------|
   1 + 2 + 3 + 4 + 1 + 2 + 3 + 4 + 1 + 2 + 3 + 4 + 1 + 2 + 3 + 4 +

F|-----------------------------------------------------------------|
C|---------------------------------------------------------2-1-----|
G|-----------------0-0-0-0-0-7-7---2-2-2-2-2-4-2-4-2-2-2-2-----4-2-|
C|-2-2-2-2-2-2-2-2-------------------------------------------------|
   1 + 2 + 3 + 4 + 1 + 2 + 3 + 4 + 1 + 2 + 3 + 4 + 1 + 2 + 3 + 4 +

F|-------------------------------------------------------------------|
C|o-----------------------------------------------------------------o|
G|o-------------0---0-0-0-0-0-------2-2-2-2-2-2-6-7-2-4-2-4-7---7-7\o|
C|--2-2-2-2-2-2---2--------------------------------------------------|
    1 + 2 + 3 + 4 + 1 + 2 + 3 + 4 + 1 + 2 + 3 + 4 + 1 + 2 + 3 + 4 +

Pre Chorus 2:01
F|-----------------------------------------------------------------|
C|-----------------------------------------------------------------|
G|-----------------0-0-0-0-0-0-0-0-7-7-7-7-7-7-7-7-2-2-2-2-2-2-2-2-|
C|-6-6-6-6-6-6-6-6-------------------------------------------------|
   1 + 2 + 3 + 4 + 1 + 2 + 3 + 4 + 1 + 2 + 3 + 4 + 1 + 2 + 3 + 4 +

F|-----------------------------------------------------------------|
C|-6-6-6-6-6-6-6-6-7-7-7-7-7-7-7-7---------------------------------|
G|---------------------------------7-7-7-7-7-7-7-7-----------------|
C|-------------------------------------------------9-9-9-9-9-\-----|
   1 + 2 + 3 + 4 + 1 + 2 + 3 + 4 + 1 + 2 + 3 + 4 + 1 + 2 + 3 + 4 +

Chorus 2:13
F|-----------------------------------------------------------------|
C|-----------------------------------------------------------------|
G|-----------------2---2---------2-0---0---------0-0---0-----------|
C|-2---2---------2-----------------------------------------7-9-7-6-|
   1 + 2 + 3 + 4 + 1 + 2 + 3 + 4 + 1 + 2 + 3 + 4 + 1 + 2 + 3 + 4 +

F|-----------------------------------------------------------------|
C|-----------------------------------------------------------------|
G|-----------------2-2-2-2-2-2-2-2-0---0---------0-0---0-----------|
C|-2-2-2-2-2-2-2-2-----------------------------------------7-9-7-6-|
   1 + 2 + 3 + 4 + 1 + 2 + 3 + 4 + 1 + 2 + 3 + 4 + 1 + 2 + 3 + 4 +

F|-------------------------------------------------------------------|
C|o-----------------------------------------------------------------o|
G|o-----------------2---2---2---2---0---0---0---0---0---0-----------o|
C|--2---2---2---2-------------------------------------------7-9-7-6--|
    1 + 2 + 3 + 4 + 1 + 2 + 3 + 4 + 1 + 2 + 3 + 4 + 1 + 2 + 3 + 4 +

Bridge 2:35
F|-----------------------------------------------------------------|
C|-----------------------------------------------------------------|
G|-----------------2---------------0-------------------------------|
C|-2---------------------------------------------------------------|
   1 + 2 + 3 + 4 + 1 + 2 + 3 + 4 + 1 + 2 + 3 + 4 + 1 + 2 + 3 + 4 +

F|-----------------------------------------------------------------|
C|-----------------------------------------------------------------|
G|-----------------2-2-2-2-2-2-2-2-0-0-0-0-0-0-0-0-0-0-0-0-0-2-0-2-|
C|-2-2-2-2-2-2-2-2-------------------------------------------------|
   1 + 2 + 3 + 4 + 1 + 2 + 3 + 4 + 1 + 2 + 3 + 4 + 1 + 2 + 3 + 4 +

F|-----------------------------------------------------------------|
C|-------------------------------------------------------------1-2-|
G|-----------------2-2-2-2-2-2-2-2-0-0-0-0-0-0-0-0-0-0-0-0-2-4-----|
C|-2-2-2-2-2-2-2-2-------------------------------------------------|
   1 + 2 + 3 + 4 + 1 + 2 + 3 + 4 + 1 + 2 + 3 + 4 + 1 + 2 + 3 + 4 +

F|-------------------------------------------------------------------|
C|o-----------------------------------------------------------------o|
G|o-----------------2-2-2-2-2-2-2-2-0-0-0-0-0-0-0-0-0-0-0-0-0-2-0-2-o|
C|--2-2-2-2-2-2-2-2--------------------------------------------------|
    1 + 2 + 3 + 4 + 1 + 2 + 3 + 4 + 1 + 2 + 3 + 4 + 1 + 2 + 3 + 4 +

F|-----------------------------------------------------------------|
C|-----------------------------------------------------------------|
G|-----------------2-2-2-2-2-2-2-2-0-0-0-0-0-0-0-0-0---------------|
C|-2-2-2-2-2-2-2-2-------------------------------------------------|
   1 + 2 + 3 + 4 + 1 + 2 + 3 + 4 + 1 + 2 + 3 + 4 + 1 + 2 + 3 + 4 +

Breakdown 3:10
F|-------------------------------------------------------------------|
C|o-----------------------------------------------------------------o|
G|o-----------------------------------------------------------------o|
C|--222-222-222-222-222-----------------------------222-222----------|
    1 + 2 + 3 + 4 + 1 + 2 + 3 + 4 + 1 + 2 + 3 + 4 + 1 + 2 + 3 + 4 +

F|-----------------------------------------------------------------|
C|-----------------------------------------------------------------|
G|-----------------------------------------------------------------|
C|-22222222222222222-------------------------------22222222--------|
   1 + 2 + 3 + 4 + 1 + 2 + 3 + 4 + 1 + 2 + 3 + 4 + 1 + 2 + 3 + 4 +

F|-----------------------------------------------------------------|
C|-----------------------------------------------------------------|
G|-----------------------------------------------------------------|
C|-22222222222222222-------------------------------2222------------|
   1 + 2 + 3 + 4 + 1 + 2 + 3 + 4 + 1 + 2 + 3 + 4 + 1 + 2 + 3 + 4 +

Rest

Chorus 3:45
F|-------------------------------------------------------------------|
C|o-----------------------------------------------------------------o|
G|o-----------------2---2---2---2---0---0---0---0---0---0-----------o|
C|--2---2---2---2-------------------------------------------7-9-7-6--|
    1 + 2 + 3 + 4 + 1 + 2 + 3 + 4 + 1 + 2 + 3 + 4 + 1 + 2 + 3 + 4 +

Outro3:56
F|-----------------------------------------------------------------|
C|-----------------------------------------------------------------|
G|-------------0---0-0-0-0-0-0-4-0-2-2-2-2-2-2-6-7-2-4-2-4-7-------|
C|-2-2-2-2-2-2---2-------------------------------------------------|
   1 + 2 + 3 + 4 + 1 + 2 + 3 + 4 + 1 + 2 + 3 + 4 + 1 + 2 + 3 + 4 +


F|-----------------------------------------------------------------|
C|-----------------------------------------------------------------|
G|-------------0---0-0-0-0-0-0-7-\-2-2-2-2-2-2-6-7-2-4-2-4-7-7-7---|
C|-2-2-2-2-2-2---2-------------------------------------------------|
   1 + 2 + 3 + 4 + 1 + 2 + 3 + 4 + 1 + 2 + 3 + 4 + 1 + 2 + 3 + 4 +

Keep Holding On

Verse 0:30
F|-----------------------------------------------------------------|
C|-----------------------------------------------------------------|
G|-5---5-----5-5-------------------5---5-----5-57------------------|
C|-----------------5---------5-5-------------------5---------5-5---|
   1 + 2 + 3 + 4 + 1 + 2 + 3 + 4 + 1 + 2 + 3 + 4 + 1 + 2 + 3 + 4 +
Pre Chorus
F|-----------------------------------------------------------------|
C|-----------------------------------------------------------------|
G|-5---------5-5-------------------2-----------0-----------0-0-5424|
C|-----------------5---------5-7-------------2-----5-5-5-5---------|
   1 + 2 + 3 + 4 + 1 + 2 + 3 + 4 + 1 + 2 + 3 + 4 + 1 + 2 + 3 + 4 +

Chorus 0:51
F|-----------------------------------------------------------------|
C|-----------------------------------------------------------------|
G|-5-5-5-5-5-5-5-5-2-2-2-2-4-4-5-5-0-0-0-0-5-5-4-4---------0-0-5424|
C|-------------------------------------------------5-5-5-5---------|
   1 + 2 + 3 + 4 + 1 + 2 + 3 + 4 + 1 + 2 + 3 + 4 + 1 + 2 + 3 + 4 +

F|---------------------------------------------------------------------------------|
C|---------------------------------------------------------------------------------|
G|-5-5-5-5-5-5-5-5-2-2-2-2-4-4-5-5-0-0-0-0-5-5-4-4---------0-0-0-0-5---------------|
C|-------------------------------------------------5-5-5-5-------------------------|
   1 + 2 + 3 + 4 + 1 + 2 + 3 + 4 + 1 + 2 + 3 + 4 + 1 + 2 + 3 + 4 + 1 + 2 + 3 + 4 + 

Rest

Verse 1:27
F|-----------------------------------------------------------------|
C|-------------------------------------------------------------54--|
G|-5---------5-5-------------------2-----------0-----------------74|
C|-----------------5---------5-7-------------2-----5---------5-----|
   1 + 2 + 3 + 4 + 1 + 2 + 3 + 4 + 1 + 2 + 3 + 4 + 1 + 2 + 3 + 4 +

F|-----------------------------------------------------------------|
C|-----------------------------------------------------------------|
G|-5---------5-5-------------------5---------5-57------------------|
C|-----------------5---------5-5-------------------5---------5-5---|
   1 + 2 + 3 + 4 + 1 + 2 + 3 + 4 + 1 + 2 + 3 + 4 + 1 + 2 + 3 + 4 +

Pre Chorus
F|-----------------------------------------------------------------|
C|-----------------------------------------------------------------|
G|-5---------5-5-------------------2-----------0-----------0-0-5424|
C|-----------------5---------5-7-------------2-----5-5-5-5---------|
   1 + 2 + 3 + 4 + 1 + 2 + 3 + 4 + 1 + 2 + 3 + 4 + 1 + 2 + 3 + 4 +


Chorus 1:58
F|-----------------------------------------------------------------|
C|-----------------------------------------------------------------|
G|-5-5-5-5-5-5-5-5-2-2-2-2-4-4-5-5-0-0-0-0-5-5-4-4---------0-0-5424|
C|-------------------------------------------------5-5-5-5---------|
   1 + 2 + 3 + 4 + 1 + 2 + 3 + 4 + 1 + 2 + 3 + 4 + 1 + 2 + 3 + 4 +

F|---------------------------------------------------------------------------------|
C|---------------------------------------------------------------------------------|
G|-5-5-5-5-5-5-5-5-2-2-2-2-4-4-5-5-0-0-0-0-5-5-4-4---------------------------------|
C|-------------------------------------------------5-5-5-5-7-7-7-7-9---\-----------|
   1 + 2 + 3 + 4 + 1 + 2 + 3 + 4 + 1 + 2 + 3 + 4 + 1 + 2 + 3 + 4 + 1 + 2 + 3 + 4 +

Rest

Bridge 2:37
F|----------------------------------------------------------------------------------|
C|----------------------------------------------------------------------------------|
G|---------0-0-7774442-2-2-2-2-2-2-2-0-0-0-0-0-0-0-0-----------------------------0-0|
C|-5-5-5-5-------------------------------------------4-4-4-4-4-4-4-4-5-5-5-5-5-5----|
   1 + 2 + 3 + 4  +  1 + 2 + 3 + 4 + 1 + 2 + 3 + 4 + 1 + 2 + 3 + 4 + 1 + 2 + 3 + 4 +

F|-----------------------------------------------------------------|
C|-----------------------------------------------------------------|
G|-2-2-2-2-2-2-2-2-4-4-4-4-4-4-4-4-------------------------0-0-2024|
C|---------------------------------4-4-4-4-4-4-4-4-5-5-5-5---------|
   1 + 2 + 3 + 4 + 1 + 2 + 3 + 4 + 1 + 2 + 3 + 4 + 1 + 2 + 3 + 4 +

Solo 3:00
F|-----------------------------------------------------------------|
C|-----------------------------------------------------------------|
G|-5-5-5-5-5-5-5-5-----------------2-2-2-2-0-0-20245-5-5-5-5-5-5-5-|
C|-----------------5-5-5-5-5-5-5-5---------------------------------|
   1 + 2 + 3 + 4 + 1 + 2 + 3 + 4 + 1 + 2 + 3 + 4 + 1 + 2 + 3 + 4 +

F|-------------------------------------------------|
C|-------------------------------------------------|
G|-----------------2-2-2-2-0-0-0-0-----------------|
C|-5-5-5-5-5-5-5-5-----------------5-5-5-5-5-5-5-5-|
   1 + 2 + 3 + 4 + 1 + 2 + 3 + 4 + 1 + 2 + 3 + 4 + 

Pre Chorus 3:18
F|-----------------------------------------------------------------|
C|-----------------------------------------------------------------|
G|-5---------------2---------------0-------------------------------|
C|-------------------------------------------------5-5-5-----------|
   1 + 2 + 3 + 4 + 1 + 2 + 3 + 4 + 1 + 2 + 3 + 4 + 1 + 2 + 3 + 4 +

Chorus 3:28
F|-----------------------------------------------------------------|
C|-----------------------------------------------------------------|
G|-5-5-5-5-5-5-5-5-2-2-2-2-4-4-5-5-0-0-0-0-5-5-4-4---------0-0-5424|
C|-------------------------------------------------5-5-5-5---------|
   1 + 2 + 3 + 4 + 1 + 2 + 3 + 4 + 1 + 2 + 3 + 4 + 1 + 2 + 3 + 4 +

F|-------------------------------------------------------------------|
C|-------------------------------------------------------------------|
G|-5-5-5-5-5-5-5-5-2-2-2-2-4-4-2-4-5-0-0-0-0-5-5-4-4---------0-0-0-0-|
C|---------------------------------------------------5-5-5-5---------|
   1 + 2 + 3 + 4 + 1 + 2 + 3 + Tripl 1 + 2 + 3 + 4 + 1 + 2 + 3 + 4 +

Outro Repeat till end
F|-------------------------------------------------------------------|
C|o-----------------------------------------------------------------o|
G|o-----------------------------------------------------------------o|
C|--000000000---------000-----000-0-000000000---------000-----000-0--|
    1 + 2 + 3 + 4 + 1 + 2 + 3 + 4 + 1 + 2 + 3 + 4 + 1 + 2 + 3 + 4 +

Drifter

Intro
F|-----------------------------------------------------------------------|
C|-----------------------------------------------------------------------|
G|---0-2-3-------3-------3-------3-----3-0-------0-------0-------0-------|
C|-5---------5-------5-------5-------5-------2-------2-------2-------2---|
   + 4 + 1 + 2 + 3 + 4 + 1 + 2 + 3 + 4 + 1 + 2 + 3 + 4 + 1 + 2 + 3 + 4 +

F|-----7---------------7-------------------------------7-----------|
C|-5-------5-------5-------5-------3-------3-3-----5-------5-5-7-8-|
G|-------------5---------------5-------3-------3-------------------|
C|-----------------------------------------------------------------|
   1 + 2 + 3 + 4 + 1 + 2 + 3 + 4 + 1 + 2 + 3 + 4 + 1 + 2 + 3 + 4 +

Verse
F|-5-------5-------5-------5-------2-------2-------2-------2-------|
C|-----5-------5-------5-------5-------2-------2-------2-------2---|
G|-----------------------------------------------------------------|
C|-----------------------------------------------------------------|
   1 + 2 + 3 + 4 + 1 + 2 + 3 + 4 + 1 + 2 + 3 + 4 + 1 + 2 + 3 + 4 +

F|-----7---------------7-------------------------------7-----------|
C|-5-------5-------5-------5-----7-3-------3-------5-------5-5-3-2-|
G|-------------5---------------5-------3-------3-------------------|
C|-----------------------------------------------------------------|
   1 + 2 + 3 + 4 + 1 + 2 + 3 + 4 + 1 + 2 + 3 + 4 + 1 + 2 + 3 + 4 +

Chorus
F|-----------------------------------------------------------------|
C|-----------------------------------------------------------------|
G|-3-------3-------3-------3-----3-0-------0-------0-------0-------|
C|-----5-------5-------5-------5-------2-------2-------2-------2---|
   1 + 2 + 3 + 4 + 1 + 2 + 3 + 4 + 1 + 2 + 3 + 4 + 1 + 2 + 3 + 4 +

F|-----------------------------------------------------------------|
C|---------------------------------------------------------5-3-2-0-|
G|-----3-------3-------3-------3-------5-------5-------5-----------|
C|-3-------3-------3-------3-------5-------5-------5---------------|
   1 + 2 + 3 + 4 + 1 + 2 + 3 + 4 + 1 + 2 + 3 + 4 + 1 + 2 + 3 + 4 +

Interlude
F|-----------------------------------------------------------------|
C|-----------------------------------------------------------------|
G|-3-------3-------3-------3-----3-0-------0-------0-------0-------|
C|-----5-------5-------5-------5-------2-------2-------2-------2---|
   1 + 2 + 3 + 4 + 1 + 2 + 3 + 4 + 1 + 2 + 3 + 4 + 1 + 2 + 3 + 4 +

F|-----7---------------7-------------------------------7-----------|
C|-5-------5-------5-------5-------3-------3-------5-------5-5-7-8-|
G|-------------5---------------5-------3-------3-------------------|
C|-----------------------------------------------------------------|
   1 + 2 + 3 + 4 + 1 + 2 + 3 + 4 + 1 + 2 + 3 + 4 + 1 + 2 + 3 + 4 +

Verse
F|-5-------5-------5-------5-------2-------2-------2-------2-------|
C|-----5-------5-------5-------5-------2-------2-------2-------2---|
G|-----------------------------------------------------------------|
C|-----------------------------------------------------------------|
   1 + 2 + 3 + 4 + 1 + 2 + 3 + 4 + 1 + 2 + 3 + 4 + 1 + 2 + 3 + 4 +

F|-----7---------------7-------------------------------7-----------|
C|-5-------5-------5-------5-----7-3-------3-------5-------5-5-3-2-|
G|-------------5---------------5-------3-------3-------------------|
C|-----------------------------------------------------------------|
   1 + 2 + 3 + 4 + 1 + 2 + 3 + 4 + 1 + 2 + 3 + 4 + 1 + 2 + 3 + 4 +

Chorus
F|-----------------------------------------------------------------|
C|-----------------------------------------------------------------|
G|-3-------3-------3-------3-----3-0-------0-------0-------0-------|
C|-----5-------5-------5-------5-------2-------2-------2-------2---|
   1 + 2 + 3 + 4 + 1 + 2 + 3 + 4 + 1 + 2 + 3 + 4 + 1 + 2 + 3 + 4 +

F|-----------------------------------------------------------------|
C|---------------------------------------------------------5-3-2-0-|
G|-----3-------3-------3-------3-------5-------5-------5-----------|
C|-3-------3-------3-------3-------5-------5-------5---------------|
   1 + 2 + 3 + 4 + 1 + 2 + 3 + 4 + 1 + 2 + 3 + 4 + 1 + 2 + 3 + 4 +

Bridge
F|-2---------------------2-2-----2-5-----------------------------5-|
C|-----2-------2-------2-------2-------5-------5-------5-------5---|
G|---------0-------0-----------------------3-------3-------3-------|
C|-----------------------------------------------------------------|
   1 + 2 + 3 + 4 + 1 + 2 + 3 + 4 + 1 + 2 + 3 + 4 + 1 + 2 + 3 + 4 +

F|-------------------------------------------------------------0-1-|
C|-3-------3-------3-------3-----3---------5-------5-------5-3-----|
G|-----3-------3-------3-------3-------5-------5-------5-----------|
C|---------------------------------5-------------------------------|
   1 + 2 + 3 + 4 + 1 + 2 + 3 + 4 + 1 + 2 + 3 + 4 + 1 + 2 + 3 + 4 +

F|-2-----------------------2-----2-5-----------------------------5-|
C|-----2-------2-------2-------2-------5-------5-------5-------5---|
G|---------0-------0-----------------------3-------3-------3-------|
C|-----------------------------------------------------------------|
   1 + 2 + 3 + 4 + 1 + 2 + 3 + 4 + 1 + 2 + 3 + 4 + 1 + 2 + 3 + 4 +

F|-----------------------------------------------------------------|
C|-3-------3-------3-------3-------2-------2-------3-------5-------|
G|-----3-------3-------3-------3-------2-------2-------3-------5---|
C|-----------------------------------------------------------------|
   1 + 2 + 3 + 4 + 1 + 2 + 3 + 4 + 1 + 2 + 3 + 4 + 1 + 2 + 3 + 4 +

Outro Chorus
F|-----------------------------------------------------------------|
C|-----------------------------------------------------------------|
G|-3-------------------------------0-------------------------------|
C|-----------------------------------------------------------------|
   1 + 2 + 3 + 4 + 1 + 2 + 3 + 4 + 1 + 2 + 3 + 4 + 1 + 2 + 3 + 4 +

F|-----------------------------------------------------------------|
C|-----------------------------------------------------------------|
G|-----------------------------------------------------------------|
C|-5-------------------------------3---------------5---------------|
   1 + 2 + 3 + 4 + 1 + 2 + 3 + 4 + 1 + 2 + 3 + 4 + 1 + 2 + 3 + 4 +

End of Regular Album

Where Have You Been (Bonus Track)

Intro 0:07
F|-----------------------------------------------------------------|
C|-----------------------------------------------------------------|
G|-5-5-5-5-5-5-5-5-1-1-1-1-1-1-1-1-3-3-3-3-3-3-3-3-----------------|
C|-------------------------------------------------3-3-3-3-2-2-2-2-|
   1 + 2 + 3 + 4 + 1 + 2 + 3 + 4 + 1 + 2 + 3 + 4 + 1 + 2 + 3 + 4 +

F|-----------------------------------------------------------------|
C|-----------------------------------------------------------------|
G|-----------------1-1-1-1-1-1-1-1-3-3-3-3-3-3-3-3-----------------|
C|-0-0-0-0-0-0-0-0---------------------------------3-3-3-3-2-2-2-2-|
   1 + 2 + 3 + 4 + 1 + 2 + 3 + 4 + 1 + 2 + 3 + 4 + 1 + 2 + 3 + 4 +

F|-----------------------------------------------------------------|
C|-----------------------------------------------------------------|
G|-----------------------------------------------------------------|
C|-0---------------------------------------------------------------|
   1 + 2 + 3 + 4 + 1 + 2 + 3 + 4 + 1 + 2 + 3 + 4 + 1 + 2 + 3 + 4 +

F|-----------------------------------------------------------------|
C|-----------------------------------------------------------------|
G|-----------------------------------------------------------------|
C|-----------------0-----------------------------------------------|
   1 + 2 + 3 + 4 + 1 + 2 + 3 + 4 + 1 + 2 + 3 + 4 + 1 + 2 + 3 + 4 +

Verse 0:23
F|-----------------------------------------------------------------|
C|-----------------------------------------------------------------|
G|-----------------------------------------------------------------|
C|-0-0-0-0-0-0-0-0-0-0-0-0-0-0-0-0-0-0-0-0-0-0-0-0-0-0-0-0-0-0-0-0-|
   1 + 2 + 3 + 4 + 1 + 2 + 3 + 4 + 1 + 2 + 3 + 4 + 1 + 2 + 3 + 4 +

F|-----------------------------------------------------------------|
C|-----------------------------------------------------------------|
G|---------------------------------1-1-1-1-1-1-1-1-3-3-3-3-3-3-3-3-|
C|-0-0-0-0-0-0-0-0-0-0-0-0-0-0-0-0---------------------------------|
   1 + 2 + 3 + 4 + 1 + 2 + 3 + 4 + 1 + 2 + 3 + 4 + 1 + 2 + 3 + 4 +

F|-----------------------------------------------------------------|
C|-----------------------------------------------------------------|
G|-----------------------------------------------------------------|
C|-0-0-0-0-0-0-0-0-0-0-0-0-0-0-0-0-0-0-0-0-0-0-0-0-0-0-0-0-0-0-0-0-|
   1 + 2 + 3 + 4 + 1 + 2 + 3 + 4 + 1 + 2 + 3 + 4 + 1 + 2 + 3 + 4 +

F|-----------------------------------------------------------------|
C|-----------------------------------------------------------------|
G|---------------------------------1-1-1-1-1-1-1-1-----------------|
C|-0-0-0-0-0-0-0-0-0-0-0-0-0-0-0-0-----------------3-------2-------|
   1 + 2 + 3 + 4 + 1 + 2 + 3 + 4 + 1 + 2 + 3 + 4 + 1 + 2 + 3 + 4 +

Pre Chorus
F|-----------------------------------------------------------------|
C|-----------------------------------------------------------------|
G|---------------------------------0-------------------------------|
C|-5---------------------------------------------------------------|
   1 + 2 + 3 + 4 + 1 + 2 + 3 + 4 + 1 + 2 + 3 + 4 + 1 + 2 + 3 + 4 +

Chorus 0:43
F|-----------------------------------------------------------------|
C|-----------------------------------------------------------------|
G|-5-5-5-5-5-5-5-5-1-1-1-1-1-1-1-1-3-3-3-3-3-3-3-3-----------------|
C|-------------------------------------------------3-3-3-3-2-2-2-2-|
   1 + 2 + 3 + 4 + 1 + 2 + 3 + 4 + 1 + 2 + 3 + 4 + 1 + 2 + 3 + 4 +

F|-----------------------------------------------------------------|
C|-----------------------------------------------------------------|
G|-5-5-5-5-5-5-5-5-1-1-1-1-1-1-1-1-----------------3-3-3-3-3-3-3-3-|
C|---------------------------------3-3-3-3-3-3-3-3-----------------|
   1 + 2 + 3 + 4 + 1 + 2 + 3 + 4 + 1 + 2 + 3 + 4 + 1 + 2 + 3 + 4 +

F|-----------------------------------------------------------------|
C|-----------------------------------------------------------------|
G|-5-5-5-5-5-5-5-5-1-1-1-1-1-1-1-1-3-3-3-3-3-3-3-3-----------------|
C|-------------------------------------------------3-3-3-3-2-2-2-2-|
   1 + 2 + 3 + 4 + 1 + 2 + 3 + 4 + 1 + 2 + 3 + 4 + 1 + 2 + 3 + 4 +

F|-----------------------------------------------------------------|
C|-----------------------------------------------------------------|
G|-5-5-5-5-5-5-5-5-1-1-1-1-1-1-1-1-8-8-8-8-8-8-8-8-3-3-3-3-3-3-3-3-|
C|-----------------------------------------------------------------|
   1 + 2 + 3 + 4 + 1 + 2 + 3 + 4 + 1 + 2 + 3 + 4 + 1 + 2 + 3 + 4 +

Interlude 0:59
F|---------------------------------------------------------------------------------|
C|---------------------------------------------------------------------------------|
G|-1----1----1-----1----1----1-----3----3----3-----4----4----4-----5---\-----------|
C|---------------------------------------------------------------------------------|
   Tri  pl   et    Tri  pl   et    Tri  pl   et    Tri  pl   et    1 + 2 + 3 + 4 +

Verse 1:04
F|-----------------------------------------------------------------|
C|-----------------------------------------------------------------|
G|-----------------------------------------------------------------|
C|-0-0-0-0-0-0-0-0-0-0-0-0-0-0-0-0-0-0-0-0-0-0-0-0-0-0-0-0-0-0-0-0-|
   1 + 2 + 3 + 4 + 1 + 2 + 3 + 4 + 1 + 2 + 3 + 4 + 1 + 2 + 3 + 4 +

F|-----------------------------------------------------------------|
C|-----------------------------------------------------------------|
G|---------------------------------1-1-1-1-1-1-1-1-3-3-3-3-3-3-3-3-|
C|-0-0-0-0-0-0-0-0-0-0-0-0-0-0-0-0---------------------------------|
   1 + 2 + 3 + 4 + 1 + 2 + 3 + 4 + 1 + 2 + 3 + 4 + 1 + 2 + 3 + 4 +

F|-----------------------------------------------------------------|
C|-----------------------------------------------------------------|
G|-----------------------------------------------------------------|
C|-0-0-0-0-0-0-0-0-0---------------0-0-------------0-0-----0-0-----|
   1 + 2 + 3 + 4 + 1 + 2 + 3 + 4 + 1 + 2 + 3 + 4 + 1 + 2 + 3 + 4 +

F|-----------------------------------------------------------------|
C|-----------------------------------------------------------------|
G|-------------------------------------------------3---------------|
C|-0-0-0-0-0-0-0-0-0---------------0-0-----------0-----------------|
   1 + 2 + 3 + 4 + 1 + 2 + 3 + 4 + 1 + 2 + 3 + 4 + 1 + 2 + 3 + 4 +

Chorus 1:21
F|-----------------------------------------------------------------|
C|-----------------------------------------------------------------|
G|-5-5-5-5-5-5-5-5-1-1-1-1-1-1-1-1-3-3-3-3-3-3-3-3-----------------|
C|-------------------------------------------------3-3-3-3-2-2-2-2-|
   1 + 2 + 3 + 4 + 1 + 2 + 3 + 4 + 1 + 2 + 3 + 4 + 1 + 2 + 3 + 4 +

F|-----------------------------------------------------------------|
C|-----------------------------------------------------------------|
G|-5-5-5-5-5-5-5-5-1-1-1-1-1-1-1-1-----------------3-3-3-3-3-3-3-3-|
C|---------------------------------3-3-3-3-3-3-3-3-----------------|
   1 + 2 + 3 + 4 + 1 + 2 + 3 + 4 + 1 + 2 + 3 + 4 + 1 + 2 + 3 + 4 +

F|-----------------------------------------------------------------|
C|-----------------------------------------------------------------|
G|-5-5-5-5-5-5-5-5-1-1-1-1-1-1-1-1-3-3-3-3-3-3-3-3-----------------|
C|-------------------------------------------------3-3-3-3-2-2-2-2-|
   1 + 2 + 3 + 4 + 1 + 2 + 3 + 4 + 1 + 2 + 3 + 4 + 1 + 2 + 3 + 4 +

F|-----------------------------------------------------------------|
C|-----------------------------------------------------------------|
G|-5-5-5-5-5-5-5-5-1-1-1-1-1-1-1-1-8-8-8-8-8-8-8-8-3-3-3-3-3-3-3-3-|
C|-----------------------------------------------------------------|
   1 + 2 + 3 + 4 + 1 + 2 + 3 + 4 + 1 + 2 + 3 + 4 + 1 + 2 + 3 + 4 +

Interlude 1:37
F|-----------------------------------------------------------------|
C|-----------------------------------------------------------------|
G|-1----1----1-----1----1----1-----3----3----3-----4----4----4-----|
C|-----------------------------------------------------------------|
   Tri  pl   et    Tri  pl   et    Tri  pl   et    Tri  pl   et    

F|---------------------------------|
C|---------------------------------|
G|-1---------------0---------------|
C|---------3---------------2-------|
   1 + 2 + 3 + 4 + 1 + 2 + 3 + 4 + 

Solo
F|-----------------------------------------------------------------|
C|-----------------------------------------------------------------|
G|-1-1-1-1-1-1-1-1-1-1-1-1-1-1-1-1-5-5-5-5-5-5-5-5-3-3-3-3-3-3-3-3-|
C|-----------------------------------------------------------------|
   1 + 2 + 3 + 4 + 1 + 2 + 3 + 4 + 1 + 2 + 3 + 4 + 1 + 2 + 3 + 4 +

F|-----------------------------------------------------------------|
C|-----------------------------------------------------------------|
G|-0-0-0-0-0-0-0-0-0-0-0-0-0-0-0-0---------------------------------|
C|---------------------------------3-3-3-3-3-3-3-3-3-3-3-3---------|
   1 + 2 + 3 + 4 + 1 + 2 + 3 + 4 + 1 + 2 + 3 + 4 + 1 + 2 + 3 + 4 +

F|-----------------------------------------------------------------|
C|-----------------------------------------------------------------|
G|-1-1-1-1-1-1-1-1-1-1-1-1-1-1-1-1-5-5-5-5-5-5-5-5-3-3-3-3-3-3-3-3-|
C|-----------------------------------------------------------------|
   1 + 2 + 3 + 4 + 1 + 2 + 3 + 4 + 1 + 2 + 3 + 4 + 1 + 2 + 3 + 4 +

F|-----------------------------------------------------------------|
C|-----------------------------------------------------------------|
G|-0-0-0-0-0-0-0-0-0-0-0-0-0-0-0-0---------------------------------|
C|---------------------------------3-3-3-3-3-3-3-3-----------------|
   1 + 2 + 3 + 4 + 1 + 2 + 3 + 4 + 1 + 2 + 3 + 4 + 1 + 2 + 3 + 4 +

1:58
F|-----------------------------------------------------------------|
C|-----------------------------------------------------------------|
G|-1-1-1-1-1-1-1-1-1-1-1-1-1-1-1-1-5-5-5-5-5-5-5-5-3-3-3-3-3-3-3-3-|
C|-----------------------------------------------------------------|
   1 + 2 + 3 + 4 + 1 + 2 + 3 + 4 + 1 + 2 + 3 + 4 + 1 + 2 + 3 + 4 +

F|-----------------------------------------------------------------|
C|-----------------------------------------------------------------|
G|-0-0-0-0-0-0-0-0-0-0-0-0-0-0-0-0---------------------------------|
C|---------------------------------3-3-3-3-3-3-3-3-5-5-3-3-5-5-3-3-|
   1 + 2 + 3 + 4 + 1 + 2 + 3 + 4 + 1 + 2 + 3 + 4 + 1 + 2 + 3 + 4 +

2:06
F|-----------------------------------------------------------------|
C|-----------------------------------------------------------------|
G|-------------------------------------------------3---0---5-------|
C|-12--\---12--\---12--\---/-12----0---2---3---5-------------------|
   1 + 2 + 3 + 4 + 1 + 2 + 3 + 4 + 1 + 2 + 3 + 4 + 1 + 2 + 3 + 4 +


F|-----------------------------------------------------------------|
C|-----------------------------------------------------------------|
G|-----------------------------------------------------------------|
C|-0----2----3-----5-------7---------------------------------------|
   Tri  pl   et    1 + 2 + 3 + 4 + 1 + 2 + 3 + 4 + 1 + 2 + 3 + 4 +

Breakdown 2:14
F|-----------------------------------------------------------------|
C|-----------------------------------------------------------------|
G|-----------------------------------------------------------------|
C|-12--\-------------------0-0-----0-0-----0---0-------------------|
   1 + 2 + 3 + 4 + 1 + 2 + 3 + 4 + 1 + 2 + 3 + 4 + 1 + 2 + 3 + 4 +

F|-----------------------------------------------------------------|
C|-----------------------------------------------------------------|
G|-----------------------------------------------------------------|
C|-0-0-0-0-0-0-0-0-0-0-0-0-0-0-0-0-0-0-----0-0-----0-0-----0-0-0-0-|
   1 + 2 + 3 + 4 + 1 + 2 + 3 + 4 + 1 + 2 + 3 + 4 + 1 + 2 + 3 + 4 +

F|-----------------------------------------------------------------|
C|-----------------------------------------------------------------|
G|-----------------------------------------------------------------|
C|-0-2---0-3---0-5---0-7-----------12--\---5-------7-------3-------|
   1 + 2 + 3 + 4 + 1 + 2 + 3 + 4 + 1 + 2 + 3 + 4 + 1 + 2 + 3 + 4 +

F|-----------------------------------------------------------------|
C|-----------------------------------------------------------------|
G|-----------------------------------------------------------------|
C|-0-2---0-3---0-5---------0-0-----0-0-----0-0-----0-0-----0-0-0-0-|
   1 + 2 + 3 + 4 + 1 + 2 + 3 + 4 + 1 + 2 + 3 + 4 + 1 + 2 + 3 + 4 +

F|---------------------------------|
C|---------------------------------|
G|---------------------------------|
C|-0-0-0-0-0-0-----0-0-------------|
   1 + 2 + 3 + 4 + 1 + 2 + 3 + 4 + 

Rest

Chorus 2:36
F|-----------------------------------------------------------------|
C|-----------------------------------------------------------------|
G|-5-5-5-5-5-5-5-5-1-1-1-1-1-1-1-1-----------------3-3-3-3-3-3-3-3-|
C|---------------------------------3-3-3-3-3-3-3-3-----------------|
   1 + 2 + 3 + 4 + 1 + 2 + 3 + 4 + 1 + 2 + 3 + 4 + 1 + 2 + 3 + 4 +

F|-----------------------------------------------------------------|
C|-----------------------------------------------------------------|
G|-----------------1-1-1-1-1-1-1-1-3-3-3-3-3-3-3-3-----------------|
C|-0-0-0-0-0-0-0-0---------------------------------3-3-3-3-2-2-2-2-|
   1 + 2 + 3 + 4 + 1 + 2 + 3 + 4 + 1 + 2 + 3 + 4 + 1 + 2 + 3 + 4 +

F|-----------------------------------------------------------------|
C|-----------------------------------------------------------------|
G|-5-5-5-5-5-5-5-5-1-1-1-1-1-1-1-1-8-8-8-8-8-8-8-8-3-3-3-3-3-3-3-3-|
C|-----------------------------------------------------------------|
   1 + 2 + 3 + 4 + 1 + 2 + 3 + 4 + 1 + 2 + 3 + 4 + 1 + 2 + 3 + 4 +

2:48
F|-----------------------------------------------------------------|
C|-----------------------------------------------------------------|
G|-5-5-5-5-5-5-5-5-1-1-1-1-1-1-1-1-3-3-3-3-3-3-3-3-----------------|
C|-------------------------------------------------3-3-3-3-2-2-2-2-|
   1 + 2 + 3 + 4 + 1 + 2 + 3 + 4 + 1 + 2 + 3 + 4 + 1 + 2 + 3 + 4 +

F|-----------------------------------------------------------------|
C|-----------------------------------------------------------------|
G|-5-5-5-5-5-5-5-5-1-1-1-1-1-1-1-1-8-8-8-8-8-8-8-8-3-3-3-3-3-3-3-3-|
C|-----------------------------------------------------------------|
   1 + 2 + 3 + 4 + 1 + 2 + 3 + 4 + 1 + 2 + 3 + 4 + 1 + 2 + 3 + 4 +

F|-----------------------------------------------------------------|
C|-----------------------------------------------------------------|
G|-5-5-5-5-5-5-5-5-1-1-1-1-1-1-1-1-3-3-3-3-3-3-3-3-----------------|
C|-------------------------------------------------3-3-3-3-2-2-2-2-|
   1 + 2 + 3 + 4 + 1 + 2 + 3 + 4 + 1 + 2 + 3 + 4 + 1 + 2 + 3 + 4 +

F|-----------------------------------------------------------------|
C|-----------------------------------------------------------------|
G|-5-5-5-5-5-5-5-5-1-1-1-1-1-1-1-1-----------------3-3-3-3-3-3-3-3-|
C|---------------------------------3-3-3-3-3-3-3-3-----------------|
   1 + 2 + 3 + 4 + 1 + 2 + 3 + 4 + 1 + 2 + 3 + 4 + 1 + 2 + 3 + 4 +

Outro 3:04
F|-------------------------------------------------------------------|
C|o-----------------------------------------------------------------o|
G|o-1----1----1-----1----1----1-----3----3----3-----4----4----4-----o|
C|-------------------------------------------------------------------|
    Tri  pl   et    Tri  pl   et    Tri  pl   et    Tri  pl   et    

F|---------------------------------|
C|---------------------------------|
G|---------------------------------|
C|-0-2---0-3---0-5---0-7-----------|
   1 + 2 + 3 + 4 + 1 + 2 + 3 + 4 + 

Goddamn (Bonus Track)

Intro 0:08
F|-------------------------------------------------------------------------|
C|-------------------------------------------------------------------------|
G|-2---0-------------------------------------------------------------------|
C|---------0-------------0---0-0---000-000-0-------------0---0-0---000-000-|
   3 + 4 + 1 + 2 + 3 + 4 + 1 + 2 + 3 + 4 + 1 + 2 + 3 + 4 + 1 + 2 + 3 + 4 +

F|-----------------------------------------------------------------|
C|-----------------------------------------------------------------|
G|---------------------------------------------------------2---0---|
C|-5-------------5---5-5---555-555-5-------------5---5-555---------|
   1 + 2 + 3 + 4 + 1 + 2 + 3 + 4 + 1 + 2 + 3 + 4 + 1 + 2 + 3 + 4 +

F|-----------------------------------------------------------------|
C|-----------------------------------------------------------------|
G|-----------------------------------------------------------------|
C|-0-------------0---0-0---000000000-------------0---0-0---0--0--0-|
   1 + 2 + 3 + 4 + 1 + 2 + 3 + 4 + 1 + 2 + 3 + 4 + 1 + 2 + Triplet

F|-----------------------------------------------------------------|
C|-----------------------------------------------------------------|
G|-----------------------------------------------------------------|
C|-5-------------5---5-5---555-555-5---------------5--5--5-5--5--5-|
   1 + 2 + 3 + 4 + 1 + 2 + 3 + 4 + 1 + 2 + 3 + 4 + Triplet Triplet

Rest

Verse 0:28
F|-----------------------------------------|
C|-----------------------------------------|
G|---------0---0---0---0-------------------|
C|-12--\-------------------5---5---5-5-----|
   3 + 4 + 1 + 2 + 3 + 4 + 1 + 2 + 3 + 4 +

F|-----------------------------------------------------------------|
C|-----------------------------------------------------------------|
G|-----------------------------------------------------------------|
C|-0---0---0---0---5-5-5---5---5---0---0---0---0---5-5-5---5---5---|
   1 + 2 + 3 + 4 + 1 + 2 + 3 + 4 + 1 + 2 + 3 + 4 + 1 + 2 + 3 + 4 +

F|-----------------------------------------------------------------|
C|-----------------------------------------------------------------|
G|---------------------------------0---0---0---0-------------------|
C|-0---0---0---0---5-5-5---5---5-------------------5---5---5-5-----|
   1 + 2 + 3 + 4 + 1 + 2 + 3 + 4 + 1 + 2 + 3 + 4 + 1 + 2 + 3 + 4 +

Chorus 0:47
F|------------------------------------------------------------------|
C|o-----------------------------------------------------------------|
G|o-----------------------------------------------------------------|
C|--0---0-----------0---0-----------5---5-----------5---5---12--\---|
    1 + 2 + 3 + 4 + 1 + 2 + 3 + 4 + 1 + 2 + 3 + 4 + 1 + 2 + 3 + 4 +

F|------------------------------------------------------------------|
C|-----------------------------------------------------------------o|
G|-2---2---2---2---0---0---0---0-----------------------------------o|
C|---------------------------------5---5---5---5---5---5---5---5----|
   1 + 2 + 3 + 4 + 1 + 2 + 3 + 4 + 1 + 2 + 3 + 4 + 1 + 2 + 3 + 4 +

Interlude 1:06
F|-----------------------------------------------------------------|
C|-----------------------------------------------------------------|
G|-----------------------------------------------------------------|
C|-0-------------0---0-0---000-000-0-------------0---0-0---000-000-|
   1 + 2 + 3 + 4 + 1 + 2 + 3 + 4 + 1 + 2 + 3 + 4 + 1 + 2 + 3 + 4 +

F|---------------------------------------------------------------------------------|
C|---------------------------------------------------------------------------------|
G|---------------------------------------------------------2---0-------------------|
C|-5-------------5---5-5---555-555-5-------------5---5-555---------12--\-----------|
   1 + 2 + 3 + 4 + 1 + 2 + 3 + 4 + 1 + 2 + 3 + 4 + 1 + 2 + 3 + 4 + 1 + 2 + 3 + 4 +

Rest

Verse 1:23
F|-----------------------------------------|
C|-----------------------------------------|
G|---------0---0---0---0-------------------|
C|-12--\-------------------5---5---5-5-----|
   3 + 4 + 1 + 2 + 3 + 4 + 1 + 2 + 3 + 4 +

F|-----------------------------------------------------------------|
C|-----------------------------------------------------------------|
G|-----------------------------------------------------------------|
C|-0---0---0-0-----5-5-5---5-------0---0---0-0-----5-5-5---5-------|
   1 + 2 + 3 + 4 + 1 + 2 + 3 + 4 + 1 + 2 + 3 + 4 + 1 + 2 + 3 + 4 +

F|-----------------------------------------------------------------|
C|-----------------------------------------------------------------|
G|---------------------------------0-------------------------------|
C|-0---0---0---0---5---5---5---5---------------------------/---\---|
   1 + 2 + 3 + 4 + 1 + 2 + 3 + 4 + 1 + 2 + 3 + 4 + 1 + 2 + 3 + 4 +

Chorus 1:35
F|-----------------------------------------------------------------|
C|-----------------------------------------------------------------|
G|-----------------------------------------------------------------|
C|-0---0-----------0---0-----------5---5-----------5---5---12--\---|
   1 + 2 + 3 + 4 + 1 + 2 + 3 + 4 + 1 + 2 + 3 + 4 + 1 + 2 + 3 + 4 +

F|-----------------------------------------------------------------|
C|-----------------------------------------------------------------|
G|-2---2---2---2---0---0---0---0-----------------------------------|
C|---------------------------------5---5---5---5---5---5---5---5---|
   1 + 2 + 3 + 4 + 1 + 2 + 3 + 4 + 1 + 2 + 3 + 4 + 1 + 2 + 3 + 4 +

F|-----------------------------------------------------------------|
C|-----------------------------------------------------------------|
G|-----------------------------------------------------------------|
C|-0---0-----------0---0-----------5---5-----------5---5---12--\---|
   1 + 2 + 3 + 4 + 1 + 2 + 3 + 4 + 1 + 2 + 3 + 4 + 1 + 2 + 3 + 4 +

F|-----------------------------------------------------------------|
C|-----------------------------------------------------------------|
G|-2---2---2---2---0---0---0---0-----------------------------------|
C|---------------------------------5---5---5---5---5---\-----------|
   1 + 2 + 3 + 4 + 1 + 2 + 3 + 4 + 1 + 2 + 3 + 4 + 1 + 2 + 3 + 4 +

Solo 1:55
F|-----------------------------------------------------------------|
C|-----------------------------------------------------------------|
G|-2---2---2---2---2---2---2---4-----------------------------------|
C|---------------------------------0---0---0---0---0---0---2---4---|
   1 + 2 + 3 + 4 + 1 + 2 + 3 + 4 + 1 + 2 + 3 + 4 + 1 + 2 + 3 + 4 +

F|-----------------------------------------------------------------|
C|--------------------------------------7--------------------------|
G|---------------------------------0---------0-----0-0-0-0-0-0-0-0-|
C|-5---5---5---5---5---5---5---5-----------------------------------|
   1 + 2 + 3 + 4 + 1 + 2 + 3 + 4 + Tri  pl   et    1 + 2 + 3 + 4 +

F|-----------------------------------------------------------------|
C|-----------------------------------------------------------------|
G|-2---2---2---2---2---2---2---4-----------------------------------|
C|---------------------------------0---0---0---0---0---0---2---4---|
   1 + 2 + 3 + 4 + 1 + 2 + 3 + 4 + 1 + 2 + 3 + 4 + 1 + 2 + 3 + 4 +

F|-----------------------------------------------------------------|
C|-----------------------------------------------------------------|
G|---------------------------------0--0--0-0--0--0-1--1--1-1--1--1-|
C|-5---5---5---5---5---5---5---5-----------------------------------|
   1 + 2 + 3 + 4 + 1 + 2 + 3 + 4 + Triplet Triplet Triplet Triplet 

F|-----------------------------------------------------------------|
C|-----------------------------------------------------------------|
G|-----------------------------------------------------------------|
C|-0---------------------------------------------------------------|
   1 + 2 + 3 + 4 + 1 + 2 + 3 + 4 + 1 + 2 + 3 + 4 + 1 + 2 + 3 + 4 +

F|-----------------------------------------------------------------|
C|-----------------------------------------------------------------|
G|-----------------------------------------------------------------|
C|(0)--------------------------------------------------------------|
   1 + 2 + 3 + 4 + 1 + 2 + 3 + 4 + 1 + 2 + 3 + 4 + 1 + 2 + 3 + 4 +

Chorus 2:24
F|-----------------------------------------------------------------|
C|-----------------------------------------------------------------|
G|-2---2-----------0---0-------------------------------------------|
C|---------------------------------5---5-------------------12--\---|
   1 + 2 + 3 + 4 + 1 + 2 + 3 + 4 + 1 + 2 + 3 + 4 + 1 + 2 + 3 + 4 +

F|-----------------------------------------------------------------|
C|-----------------------------------------------------------------|
G|-----------------------------------------------------------------|
C|-0---0-----------0---0-----------5---5-----------5---5-----------|
   1 + 2 + 3 + 4 + 1 + 2 + 3 + 4 + 1 + 2 + 3 + 4 + 1 + 2 + 3 + 4 +

F|-----------------------------------------------------------------|
C|-----------------------------------------------------------------|
G|-2---2---2---2---0---0---0---0-----------------------------------|
C|---------------------------------5---5---5---5---5---5---5---5---|
   1 + 2 + 3 + 4 + 1 + 2 + 3 + 4 + 1 + 2 + 3 + 4 + 1 + 2 + 3 + 4 +

F|-----------------------------------------------------------------|
C|-----------------------------------------------------------------|
G|-----------------------------------------------------------------|
C|-0---0-----------0---0-----------5---5-----------5---5---12--\---|
   1 + 2 + 3 + 4 + 1 + 2 + 3 + 4 + 1 + 2 + 3 + 4 + 1 + 2 + 3 + 4 +

F|-------------------------------------------------------------------------|
C|-------------------------------------------------------------------------|
G|-2---2---2---2---0---0---0---0-------------------------------------------|
C|---------------------------------5-------------/-17-17-17-17-17-17-17-17-|
   1 + 2 + 3 + 4 + 1 + 2 + 3 + 4 + 1 + 2 + 3 + 4 + 1  +  2  +  3  +  4  +

Outro 2:48
F|-----------------------------------------------------------------|
C|-----------------------------------------------------------------|
G|-----------------------------------------------------------------|
C|-0-------------0---0-0---000-000-0-------------0---0-0---000-000-|
   1 + 2 + 3 + 4 + 1 + 2 + 3 + 4 + 1 + 2 + 3 + 4 + 1 + 2 + 3 + 4 +

F|-----------------------------------------------------------------|
C|-----------------------------------------------------------------|
G|---------------------------------------------------------2---0---|
C|-5-------------5---5-5---555-555-5-------------5---5-5-----------|
   1 + 2 + 3 + 4 + 1 + 2 + 3 + 4 + 1 + 2 + 3 + 4 + 1 + 2 + 3 + 4 +

F|-----------------------------------------------------------------|
C|-----------------------------------------------------------------|
G|-----------------------------------------------------------------|
C|-0-------------0---0-0---000000000-------------0---0-0---0--0--0-|
   1 + 2 + 3 + 4 + 1 + 2 + 3 + 4 + 1 + 2 + 3 + 4 + 1 + 2 + Triplet

F|-----------------------------------------------------------------|
C|-----------------------------------------------------------------|
G|-----------------------------------------------------------------|
C|-5-----------------5-5-----5-5---5---------------5--5--5-5--5--5-|
   1 + 2 + 3 + 4 + 1 + 2 + 3 + 4 + 1 + 2 + 3 + 4 + Triplet Triplet
Добавлено: 19.01.2014
Другие материалы по этой песне:
  • Аккорды и текст

Страница создана 19.01.2014
http://primanota.ru/falling-in-reverse/fashionably-late-album-chords.htm
Привет, Гость.
Предлагаем пройти революционный курс по гитаре.
Подарок от PrimaNota.Ru, забирай!