PrimaNota.ru - самый крупный в мире бесплатный архив песенных текстов, аккордов, табулатур и нот


Fallbrooke - Losin It - аккорды и текст, таба, бас-таба, видео

Регистрация Запомнить меня
Войти через:  Facebook Google Twitter Vk Yandex Mail.ru

Fallbrooke - Losin It - аккорды и текст, таба, бас-таба, видео

Печатать
Просмотров: 144
Losin It
Fallbrooke
-------------------------------------------------------------------------------
			     SONG NAME - Band Name
-------------------------------------------------------------------------------
Tabbed by:
Email:

Tuning:


INTRO: (12th frets on D and A and 10th fret for E for Rythym)
e|---------------------------------------------------------------------------|
B|------------------------------13-------------------------------------------|
G|-------------------------10--------12---x3------12/14--x4------------------|
D|----------------------12----12--12-----------------------------------------|
A|---------------------------------------------------------------------------|
E|---------------------------------------------------------------------------|

(Rythym can play verse here.)
e|-------------------------------------------------------12------------------|
B|-13--13--------------13--13------13--13---------------------13-------------|
G|---14--14--------------14--14------14--14----------------14---14-----------|
D|----------12-14-15------------------------12--14--15-----------------------|
A|---------------------------------------------------------------------------|
E|---------------------------------------------------------------------------|

e|-----------------------------------------------------------------------------|
B|-13--13-----------13--13-------13--13----------------------------------------|
G|---14--14-----------14--14-------14--14-------12/14-12--12/14-12-------------|
D|----------12-14-15----------------------12--15-------------------------------|
A|-----------------------------------------------------------------------------|
E|-----------------------------------------------------------------------------|

VERSE: (Play the same over for 4 times)
We've been talking from different states..
e|---------------------------------------------------------------------------|
B|---------------------------------------------------------------------------|
G|---------------------------------------------------------------------------|
D|-----12----------8----------3----------------------------------------------|
A|-----12----x8----8----x8----3----x8----------------------------------------|
E|-----10----------6----------1----------------------------------------------|

CHORUS: (Play twice)
Oh, I know we've
e|---------------------------------------------------------------------------|
B|---------------------------------------------------------------------------|
G|---------------------------------------------------------------------------|
D|-----8--------3--------10-------8--------3--------12--------10-------------|
A|-----8---x8---3---x8---8---x8---8---x8---3---x8---12---x8---8---x8---------|
E|-----6--------1--------8--------6--------1--------10--------8--------------|

(PLAY VERSE AGAIN)

(THEN CHORUS)

BRIDGE
e|------------------------------------------------------12--------|
B|-13--13-------------13--13---------13--13-----------------12----|
G|---14--14-------------14--14---------14--14-------------14--14--|
D|-----------12-14-15--------------------------12-14-15-----------|
A|----------------------------------------------------------------|
E|----------------------------------------------------------------|

There's another part of the bridge, but I can't figure it out. If you have it, please 
and I'll give credit.

PLAY CHORUS AFTER BRIDGE.


e|-----------------------------------------------------12-------------------|
B|-13--13-------------13--13--------13--13-----------------13---------------|
G|---14--14-------------14--14--------14--14-------------14--14-------------|
D|-----------12-14-15-------------------------12-14-15----------------------|
A|--------------------------------------------------------------------------|
E|--------------------------------------------------------------------------|

e|--------------------------------------------------------------------------|
B|-13--13-------------13--13-------13--13-----------------------------------|
G|---14--14-------------14--14-------14--14--------12/14--12----------------|
D|-----------12-14-15------------------------12-15--------------------------|
A|--------------------------------------------------------------------------|
E|--------------------------------------------------------------------------|


| /  slide up
| \  slide down
| h  hammer-on
| p  pull-off
| ~  vibrato
| +  harmonic
| x  Mute note
===============================================================================
Добавлено: 10.11.2013
Вам также может быть интересно:
Другие материалы по этой песне:
  • Аккорды и текст

Страница создана 23.04.2012
http://primanota.ru/fallbrooke/losin-it-chords.htm
Привет, Гость.
Предлагаем пройти революционный курс по гитаре.
Подарок от PrimaNota.Ru, забирай!