PrimaNota.ru - самый крупный в мире бесплатный архив песенных текстов, аккордов, табулатур и нот


Fall - Victoria - текст песни, таба, видео

Регистрация Запомнить меня
Войти через:  Facebook Google Twitter Vk Yandex Mail.ru

Fall - Victoria - текст песни, таба, видео

Печатать
Просмотров: 156
Song: Victoria
 
Artist: The Fall
 
Written by Ray Davies originally...
 
Album: The Frenz Experiment
 
Tab by Paul S. Whiston
 
 
There are some bits missing but this is most of it!
 
Intro:
 
|----------------------------------------|
|----------------------------------------|
|----------------------------------------|
|----------------------------------------|
|--7-7-7-7-4-4-4-4-2-2-2-2--0-0--2-2-0-0-|
|----------------------------------------|
 
 
 
Chords:
 
      244322  466544  799877  244322  466544 022100  (x2)
 
      224442  446664  779997  224442  446664 002220  (x1)
 
Tab:
 
|--------------------|--------------------|
|--------------------|--------------------|
|--------------------|--------------------|
|--------------------|--------------------|
|--2--4--7--2--4--0--|--2--4--7--2--4--0--|
|--------------------|--------------------|
 
|--------------------|--------------------|
|--------------------|--------------------|
|--------------------|--------------------|
|--2--4--7--2--4--0--|--------------------|
|--------------------|--2--4--7--2--4--0--|
|--------------------|--------------------|
 
 
 
 

     
Добавлено: 03.12.2013
Другие материалы по этой песне:
  • Аккорды и текст

Страница создана 23.09.2013
http://primanota.ru/fall/victoria-chords.htm
Привет, Гость.
Предлагаем пройти революционный курс по гитаре.
Подарок от PrimaNota.Ru, забирай!