PrimaNota.ru - самый крупный в мире бесплатный архив песенных текстов, аккордов, табулатур и нот


Fall - Stepping Out - текст песни, бас-таба, видео

Регистрация Запомнить меня
Войти через:  Facebook Google Twitter Vk Yandex Mail.ru

Fall - Stepping Out - текст песни, бас-таба, видео

Печатать
Просмотров: 144
Уроки эстрадного вокала в Санкт-Петербурге
Song: Stepping Out
Artist: The Fall
From albums: "Early Fall" and "Liverpool 78"
both on Cog Sininster
 
Bass Tab:
(A)
|------------------------------|
|------------------------------|
|-2--2--2--3--3-3------2-----2-|
|-------------------3-----3----|
(B)
|------------|------------------| 
|------------|------------------|
|-2--2--2----|-2--2--2-----2----|
|----------3-|----------3-----3-|
 
 
 
(A) runs through most of the song
(B) is chorus and pre-chorus (if those terms
mean anything with The Fall.
 

     
Добавлено: 12.09.2013
Другие материалы по этой песне:
  • Аккорды и текст

Страница создана 05.06.2012
http://primanota.ru/fall/stepping-out-chords.htm
Привет, Гость.
Предлагаем пройти революционный курс по гитаре.
Подарок от PrimaNota.Ru, забирай!