PrimaNota.ru - самый крупный в мире бесплатный архив песенных текстов, аккордов, табулатур и нот


Fall - Squid Law - текст песни, таба, видео

Регистрация Запомнить меня
Войти через:  Facebook Google Twitter Vk Yandex Mail.ru

Fall - Squid Law - текст песни, таба, видео

Печатать
Просмотров: 149
Song:Squid Law
Artist: The Fall
Album: Seminal Live (beggars banquet)
Tabbed by Paul S. Whiston
 
Main riff:
 
E|------------------------|
B|-9--8--9--8--9--8-9-8---|
G|----------------------8-|
D|------------------------|
A|------------------------|
E|------------------------|
 
 
 
 
"Chorus":
 
 
|--0--0---0--0--0--0--|
|--1--1---0--0--0--0--|
|--2--2---0--0--0--0--|
|--2--2---2--2--2--2--|
|--0--0---2--2--2--2--|
|--0--0---0--0--0--0--|
 
 
Listen to the record to get structure and timing.
I'm no good on structure and timing.

     
Добавлено: 12.09.2013
Другие материалы по этой песне:
  • Аккорды и текст

Страница создана 22.06.2012
http://primanota.ru/fall/squid-law-chords.htm
Привет, Гость.
Предлагаем пройти революционный курс по гитаре.
Подарок от PrimaNota.Ru, забирай!