PrimaNota.ru - самый крупный в мире бесплатный архив песенных текстов, аккордов, табулатур и нот


Fall - Rebellious Jukebox - текст песни, таба, видео

Регистрация Запомнить меня
Войти через:  Facebook Google Twitter Vk Yandex Mail.ru

Fall - Rebellious Jukebox - текст песни, таба, видео

Печатать
Просмотров: 111
-------------------------------------------------------------------------------
                             SONG NAME - Band Name
-------------------------------------------------------------------------------
Tabbed by: Brian Chase
Chords shown, listen to the song for patterns


e|-0------7----*12-8-7*--8----*15 12*--12-1010------------12-1010---------15-------*12 889-14-88*
B|-0------8--------------8----------------------13-12-1313--------13-1213--------------
G|-0------9--------------9-------------------------------------------------------------
D|-2------9--------------10------------------------------------------------------------
A|-2-----------------------------------------------------------------------------------
E|-0-----------------------------------------------------------------------------------
Добавлено: 14.06.2015
Другие материалы по этой песне:
  • Аккорды и текст

Страница создана 22.03.2012
http://primanota.ru/fall/rebellious-jukebox-chords.htm
Привет, Гость.
Предлагаем пройти революционный курс по гитаре.
Подарок от PrimaNota.Ru, забирай!