PrimaNota.ru - самый крупный в мире бесплатный архив песенных текстов, аккордов, табулатур и нот


Fall - Psycho Mafia - таба, бас-таба, видео

Регистрация Запомнить меня
Войти через:  Facebook Google Twitter Vk Yandex Mail.ru

Fall - Psycho Mafia - таба, бас-таба, видео

Печатать
Просмотров: 195
ARTIST: The Fall
SONG: Psycho Mafia
ALBUM: "Bingo-Master's Break-Out!" EP [1978]

Simple little punky rumble song.

VERSE/MAIN RIFF:

E5    E5  D5    E5    E5  D5    G5  F#5  D5  E5

E|--------------------------------------------------------|
B|--------------------------------------------------------|
G|----9----9----7----9----9----7----12----11----7----9----|
D|----9----9----7----9----9----7----12----11----7----9----|
A|----7----7----5----7----7----5----10----9-----5----7----|
E|--------------------------------------------------------|
(x4)

CHORUS:

E       A       F#       B

E|----0----0----2----2----|
B|----0----2----2----4----|
G|----1----2----3----4----|
D|----2----2----4----4----|
A|----2----0----4----2----|
E|----0---------2---------|

E5    E5  D5    E5    E5  D5    G5  F#5  D5  E5

E|--------------------------------------------------------|
B|--------------------------------------------------------|
G|----9----9----7----9----9----7----12----11----7----9----|
D|----9----9----7----9----9----7----12----11----7----9----|
A|----7----7----5----7----7----5----10----9-----5----7----|
E|--------------------------------------------------------|
(x2)
Добавлено: 24.03.2014
Другие материалы по этой песне:
  • Аккорды и текст

Страница создана 24.03.2014
http://primanota.ru/fall/psycho-mafia-2-chords.htm
Привет, Гость.
Предлагаем пройти революционный курс по гитаре.
Подарок от PrimaNota.Ru, забирай!