PrimaNota.ru - самый крупный в мире бесплатный архив песенных текстов, аккордов, табулатур и нот


Fall - Fiery Jack - текст песни, таба, видео

Регистрация Запомнить меня
Войти через:  Facebook Google Twitter Vk Yandex Mail.ru

Fall - Fiery Jack - текст песни, таба, видео

Печатать
Просмотров: 115
ARTIST: THE FALL
SONG: FIERY JACK
ALBUM: EARLY FALL (cog sinister)
 
Tabbed by Paul S. Whiston
 
Riff one:
 
|--------------------------|
|----------------------3-3-|
|--2-2-2-2-----2-2-2-2-----|
|----------2-2-------------|
|--------------------------|
|--------------------------|
 
This repeats thru most of song occasionally capped with:
 
|------------------|
|--------------3-3-|
|--2-2-2-2---------|
|----------2-2-----|
|------------------|
|------------------|
 
 
Riff Two: (Which I think is actually keyboard)
 
|---------------|
|--9-8-7-8------|
|----------8-8--|
|---------------|
|---------------|
|---------------|
 
Which is all pretty much just repeated on a loop.
 
 

     
Добавлено: 15.06.2013
Другие материалы по этой песне:
  • Аккорды и текст

Страница создана 03.04.2012
http://primanota.ru/fall/fiery-jack-chords.htm
Привет, Гость.
Предлагаем пройти революционный курс по гитаре.
Подарок от PrimaNota.Ru, забирай!