PrimaNota.ru - самый крупный в мире бесплатный архив песенных текстов, аккордов, табулатур и нот


Fall - Dktr Faustus - таба, бас-таба, видео

Регистрация Запомнить меня
Войти через:  Facebook Google Twitter Vk Yandex Mail.ru

Fall - Dktr Faustus - таба, бас-таба, видео

Печатать
Просмотров: 111
-------------------------------------------------------------------------------
                              DKTR. Faustus - The Fall
-------------------------------------------------------------------------------
Tabbed by: Maya L. T.

E-mail: MayaLT2000@gmail.com

Tuning: Standard

Intro:

e|---------------------------------------------------------------------------|
B|---------------------------------------------------------------------------|
G|---------------------------------------------------------------------------|
D|---------------------------------------------------------------------------|(x2)
A|---5---5---5---5---3---1---0---0-------------------------------------------|
E|---------------------------------------------------------------------------|

e|---------------------------------------------------------------------------|
B|---------------------------------------------------------------------------|
G|---------------------------------------------------------------------------|
D|---------------5---3-------3-----------------------------------------------|(X2)
A|---5---5---5-----------5---------------------------------------------------|
E|---------------------------------------------------------------------------|

e|---------------------------------------------------------------------------|
B|---------------------------------------------------------------------------|
G|---------------------------------------------------------------------------|
D|---------------------------------------------------------------------------|(x2)
A|---5---5---5---5---3---1---0---0-------------------------------------------|
E|---------------------------------------------------------------------------|

e|---------------------------------------------------------------------------|
B|---------------------------------------------------------------------------|
G|---------------------------------------------------------------------------|
D|---------------5---3-------3-----------------------------------------------|(X2)
A|---5---5---5-----------5---------------------------------------------------|
E|---------------------------------------------------------------------------|


Verse/Chorus:

e|---------------------------------------------------------------------------|
B|---------------------------------------------------------------------------|
G|---------------------------------------------------------------------------|
D|---5---3-------3-----------------------------------------------------------|(X2)
A|-----------5-------5---5---5-----------------------------------------------|
E|---------------------------------------------------------------------------|

e|---------------------------------------------------------------------------|
B|---------------------------------------------------------------------------|
G|---------------------------------------------------------------------------|
D|---------------------------------------------------------------------------|(X2)
A|---3---1---0-------3---3----3----------------------------------------------|
E|---------------3-----------------------------------------------------------|

e|---------------------------------------------------------------------------|
B|---------------------------------------------------------------------------|
G|---------------------------------------------------------------------------|
D|---5---3-------3-----------------------------------------------------------|(X2)
A|-----------5-------5---5---5-----------------------------------------------|
E|---------------------------------------------------------------------------|

e|---------------------------------------------------------------------------|
B|---------------------------------------------------------------------------|
G|---------------------------------------------------------------------------|
D|---------------------------------------------------------------------------|(X2)
A|---3---1---0-------3---3----3----------------------------------------------|
E|---------------3-----------------------------------------------------------|

'That's About It. Enjoy!'



Добавлено: 29.11.2014
Другие материалы по этой песне:
  • Аккорды и текст

Страница создана 10.11.2013
http://primanota.ru/fall/dktr-faustus-chords.htm
Привет, Гость.
Предлагаем пройти революционный курс по гитаре.
Подарок от PrimaNota.Ru, забирай!