PrimaNota.ru - самый крупный в мире бесплатный архив песенных текстов, аккордов, табулатур и нот


Fall - C.R.E.E.P. - текст песни, бас-таба, видео

Регистрация Запомнить меня
Войти через:  Facebook Google Twitter Vk Yandex Mail.ru

Fall - C.R.E.E.P. - текст песни, бас-таба, видео

Печатать
Просмотров: 133
The Fall - "C.R.E.E.P."
from the album The Wonderful and Frightening World 
of the Fall, released 1984
BASS tabbed by: Elaine "Len" Will
semi-permanent email: dishonest_don@hotmail.com

verse: 
G|--2-2---2--------------|
D|------2----4--------0--|
A|-------------2-2-2-----|
E|-----------------------| 

lather, rinse, repeat

chorus:
G|------0-0------------------|
D|-0--0------4---------------|
A|-------------3---3-0--0-3--|
E|---------------------------| 

post-chorus, not *exactly* like this, but it'll do:
G|--------------------------|
D|--------------------------|
A|--0--4-0---0-0-0--4--0----|
E|---------3----------------| 

===================================================================
     
Добавлено: 30.08.2013
Другие материалы по этой песне:
  • Аккорды и текст

Страница создана 31.05.2012
http://primanota.ru/fall/creep-chords.htm
Привет, Гость.
Предлагаем пройти революционный курс по гитаре.
Подарок от PrimaNota.Ru, забирай!