PrimaNota.ru - самый крупный в мире бесплатный архив песенных текстов, аккордов, табулатур и нот


Fall Out Boy - Take This To Your Grave (album) - аккорды и текст, таба, бас-таба, видео

Регистрация Запомнить меня
Войти через:  Facebook Google Twitter Vk Yandex Mail.ru

Fall Out Boy - Take This To Your Grave (album) - аккорды и текст, таба, бас-таба, видео

Печатать
Просмотров: 214
Take This To Your Grave (album)
Fall Out Boy
Artist: Fall Out Boy
Album: Take This To Your Grave

Track Listing:
              1. Tell Mick That He Just Made My List of Things to Do Today
              2. Dead on Arrival
              3. Grand Theft Autumn/Where Is Your Boy
              4. Saturday
              5. Homesick at Space Camp
              6. Sending Postcards from a Plane Crash (Wish You Were Here)
              7. Chicago Is So Two Years Ago
              8. The Pros and Cons of Breathing
              9. Grenade Jumper
             10. Calm Before the Storm
             11. Reinventing the Wheel to Run Myself Over
             12. The Patron Saint of Liars and Fakes
-------------------------------------------------------------------------------------------------------------
Title: "Tell Mick That He Just Made My List of Things to Do Today"
Written By: Pete Wentz

*PLAY POWER CHORDS BASICALLY THE WHOLE TIME*

VERSE 1:            E          C#m     G#m       A     B
        Light that smoke, that one for giving up on me
        E                             C#m     G#m               A      B
        And one just cause they'll kill you sooner than my expectations
              E        C#m  G#m              A   B
        To my favorite liar, to my favorite scar
         E  C#m       G#m       A
        "I could have died with you"
        E                A                                         C#m
        I hope you choke on those words, that kiss, that bottle, I confess
        E                  A
        Now ask yourself, yeah, out on the insides
                 C#m
        I said I loved you but I lied

BRIDGE:E                  C#m
       Let's play this game called "when you catch fire
       A                           B
       I wouldn't piss to put you out"
       E                             C#m
       Stop burning bridges and drive off of them
       A                         B
       So I can forget about you

CHORUS:E
       So bury me in memory
       C#m
       His smile's your rope
       E                                  A
       So wrap it tight around your throat

VERSE 2:
        On the drive home
        Joke about the kid you used to see
        And his jealousy
        Breaking hearts has never looked so cool
        As when you wrap your car around a tree
        Your makeup looks so great next to his teeth

REPEAT BRIDGE

REPEAT CHORUS x2
-------------------------------------------------------------------------------------------------------------
Title: "Dead on Arrival"
Written By: Patrick Stump & Pete Wentz

INTRO: F x2 A x2 G x2

VERSE 1:                 C
        Hope this is the last time
        Em     F    Am
        Cause I'd never say no to you
         F                               G         C
        This conversation's been dead on arrival
            Em   F     Am
        And there's no way to talk to you
        F
        This conversation's been dead on...

PRE-CHORUS:G#   Am           F            Am
           A rivalry goes so deep between me
                              F      G
           And this loss of sleep over you

CHORUS:C        G    Am   F       Am   G
       This is side one, flip me over
        C   G  Am  F         Am      G
       I know I'm not your favorite record
        C   G    Am   F                  Am       G
       The songs you grow to like never stick at first
       C        G      Am      F
       So I'm writing you a chorus
            Am       G
       And here is your verse

VERSE 2:                  C
        No, it's not the last time
         Em    F    Am
        Cause I'd never say no to you
         F                                G        C
        This conversation's still dead on arrival
            Em   F     Am           
        And there's no way to talk to you
        F
        When you're dead on...

REPEAT PRE-CHORUS

REPEAT CHORUS
-------------------------------------------------------------------------------------------------------------
Title: "Grand Theft Autumn/Where Is Your Boy"
Written By: Patrick Stump

INTRO:
      Where is your boy tonight?
      I hope he is a gentleman
      Maybe he won't find out what I know
      You were the last good thing about this part of town

VERSE 1:D             G                Em              A
        When I wake up, I'm willing to take my chances on
                        D                     G  
        The hope you forget that you hate him more than you notice
          Em             A
        I wrote this for you

PRE-CHORUS: G            A
           You need him, I could be him
           D             F#                     G
           I could be an accident but I'm still trying
                      A                       D
           And that's more than I can say for him

CHORUS:B     G       D    F#
       Where is your boy tonight?
         G       A        D
       I hope he is a gentleman
       F#        G        A           D
       Maybe he won't find out what I know
                     Em              G                 D
       You were the last good thing about this part of town

VERSE 2:D              G                      Em 
        Someday I'll appreciate in value, get off my ### and call you
                 A                     D      
        In the meantime I'll sport my brand new fashion
            G                         Em              A
        Of waking up with pants on at four in the afternoon

REPEAT PRE-CHORUS

REPEAT CHORUS
-------------------------------------------------------------------------------------------------------------
Title: "Saturday"
Written By: Patrick Stump

VERSE 1:            G#                       B
        I'm good to go and I'm going nowhere fast
        B                              E               C#
        It could be worse, I could be taking you there with me
                    E                     B   F#   G#  F# E 
        I'm good to go, but it looks like I'm still on my own

VERSE 2:            G#               B
        I'm good to go for something golden
                   F#                                   E
        Though the motions I've been going through have failed
                G#                              B
        And I'm coasting on potential towards a wall
           F#               E
        At 100 miles an hour

CHORUS:      G#   F#    E
       When I say
       B           F#                    C#   E
       Two more weeks, my foot is in the door yeah
       B         F#                 C#    E
       I can't sleep in the wake of Saturday
       B    F#              C#              E
       Saturday, when these open doors were open-ended
       B    F#              C#              E
       Saturday, when these open doors were open-ended

VERSE 3:G#         B
        Pete and I attacked the laws of Astoria
             F#                        E
        With promise and precision and mess of youthful innocence
              G#   
        And I read about the afterlife 
              B                               F#    E
        But I never really lived more than an hour

REPEAT CHORUS

BRIDGE:      E     F#       G#   B
       And I read about the afterlife
             E     F#     G#    B
       But I never really lived
             E     F#        G#   B
       And I read about the afterlife
             E     F#     G#
       But I never really lived

REPEAT CHORUS
-------------------------------------------------------------------------------------------------------------
Title: "Homesick at Space Camp"
Written By: Patrick Stump and Pete Wentz
Tuning: Drop D

*SPECIAL THANKS TO ORC FOR SAVING ME THE TROUBLE OF FIGURING THIS ONE OUT*

Intro
e|---------------------------------------------------------------------------|
B|---------------------------------------------------------------------------|
G|---------------------------------------------------------------------------|
D|--4--7--4---6-7---12(4x)-14--12-0000000------4--7--4--6--7--12(4x)--14--0--|
A|--4--7--4---6-7---9------11--12-0000000------4--7--4--6--7--9-------11--0--|
D|--4--7--4---6 7---9------11--12-0000000------4--7--4--6--7--9-------11--0--|

Verse
e|---------------------------------------------------------------------------|2x
B|---------------------------------------------------------------------------|
G|-----------------------------------------14-14-14-13-9---------------------|
D|--4-4x(14x)----7-7x(14x)----12-12x(14x)--0--0--0--0--0---------------------|
A|--4-4x---------7-7x---------9--9x--------0--0--0--0--0---------------------|
D|--4-4x---------7-7x---------9--9x--------0--0--0--0--0---------------------|


e|---------------------------------------------------------------------------|
B|---------------------------------------------------------------------------|
G|-----------------------------7(6x)-----------------------------------------|
D|--4-4x(14x)----7-7x(6x)---0--x------4-4x(14x)--7--6--0--0x0x0x-------------|
A|--4-4x---------7-7x-------0--5------4-4x-------7--6--0--0x0x0x-------------|
D|--4-4x---------7-7x-------0---------4-4x-------7--6--0--0x0x0x-------------|

Chorus
e|---------------------------------------------------------------------------|2x
B|---------------------------------------------------------------------------|
G|---------------------------------------------------------------------------|
D|--9-9-x-x-2-4-4-x-x-4-2-2-x-x-2-4-x-x-2-x-x--------------------------------|
A|--7-7-x-x-4-5-5-x-x-5-4-4-x-x-4-5-x-x-4-x-x--------------------------------|
D|--7-7-x-x-2-4-4-x-x-4-2-2-x-x-2-4-x-x-2-x-x--------------------------------|

e|---------------------------------------------------------------------------|
B|---------------------------------------------------------------------------|
G|-----------------------------7(6x)-----------------------------------------|
D|--4-4x(14x)----7-7x(6x)---0--x------4-4x(14x)--7--6--0---------------------|
A|--4-4x---------7-7x-------0--5------4-4x-------7--6--0---------------------|
D|--4-4x---------7-7x-------0---------4-4x-------7--6--0---------------------|

Bridge       5x
e|-0------|------------------------------------------------------------------|
B|---0-2--|---------0-----------0--------------------------------------------|
G|-------2|-----2-----2-----2-----2-----7-6-2-4-2-4-6-4-2--------------------|
D|--------|---2---2-----2-4---4-----4-0---0-0-0-0-0-0-0-0--------------------|
A|--------|------------------------------------------------------------------|
D|--------|------------------------------------------------------------------|

e|---------------------------------------------------------------------------|
B|--------0------------0-----------------------------------------------------|
G|----2-----2------2-----2------7--6--2--4--2--------------------------------|
D|--2----2-----2-4---4-----4-0x-0x-0--0--0--0--0x-0x-0x----------------------|
A|---------------------------0x-0x-------------0x-0x-0x----------------------|
D|---------------------------0x-0x-------------0x-0x-0x----------------------|

e|---------------------------------------------------------------------------|2x
B|----------5-7-7-x-10-5-5-x-x-7-7-------------------------------------------|
G|----------x-x-x-x--x-x-x-x-x-x-x-------------------------------------------|
D|--9-9-x-x-2-4-4-x--7-2-2-x-x-4-2-------------------------------------------|
A|--7-7-x-x-4-5-5-x--9-4-4-x-x-5-4-------------------------------------------|
D|--7-7-x-x------------------------------------------------------------------|

Order:
Intro
Verse
Chorus
Verse(Without palm mutes)
Chorus
Bridge
First half of Chorus til the end
-------------------------------------------------------------------------------------------------------------
Title: "Sending Postcards from a Plane Crash (Wish You Were Here)
Written By: Patrick Stump and Pete Wentz

VERSE 1:A            E     F#m
        I am such a sucker
                G#m         A
        And I'm always the last to know
        E         F#m
        My insides are copper
        G#m         A
        I'd kill to make them gold
        E            F#m
        Conversation got me here
        G#m             A
        Another night alone in the city
        E          F#m
        So make my bed my grave
        G#m            A
        And shovel dirt onto my sheets

PRE-CHORUS:A     F#m                    A
           Every friend we ever had in common
                  C#m             B
           I will sever the tie, sever the tie with you
           A           F#m        
           And you can thank your lucky stars
                               G#m    A
           Cause everything I wished for will never come true

CHORUS:E    F#m    A                          E   F#m
       When you go I will forget everything about you
       E    F#m    A                          E   F#m
       When you go I will forget everything about you

LINK:E
     I've seen sinking ships go down with more grace than you

VERSE 2:
        Turn this up, I'll tune you out
        Another night alone in the city
        Fake it like you matter
        That's a lie we can both keep up

REPEAT PRE-CHORUS
REPEAT CHORUS
-------------------------------------------------------------------------------------------------------------
Title: "Chicago Is So Two Years Ago"
Written By: Patrick Stump and Pete Wentz

*SHOUTOUT TO LIPSCOLLIDE FOR THE TAB*

intro: F G Em7 F (x2)


            F  C  G
my heart is on my sleeve
Em7     C      F                  F
wear it like a bruise or black eye
C  G            Em7  C  F
my badge, my weakness
           F C  G
means that I believed
Em7   C      F       F  C  G   Em7  C   F
every single lie you said


F                                   Em7     
'cause every pane of glass that your pebbles tap
G5                  A5                 F     Em7   G5 A5 
negates the pains I went through to avoid you
F                           Em7           G          
and every little pat on the shoulder for attention
         Asus2          F     Em7   G   Asus2
fails to mention I still hate you


              Asus2   C      F    Dmin
but there's a light on in Chicago
      Asus2   Em*        F   F
and I know I should be home
        Asus2           C           F
all the colors of the street signs
       G                Asus2      Em*          F        F                  
they remind me of the pick-up truck out in front of your neighbor's house


            F    C   G
she took me down and said,
Em7         C       F        F
"boys like you are overrated,
C  G              Em7 C  F
so save your breath."
        F    C  G             Em7  C
loaded words and loaded friends
   F                F   C  G  Em7  C  F
are loaded guns to our heads


F                                   Em7     
'cause every pane of glass that your pebbles tap
G5                  A5                 F     Em7   G5 A5 
negates the pains I went through to avoid you
F                           Em7           G          
and every little pat on the shoulder for attention
         Asus2          F     Em7   G   Asus2
fails to mention I still hate you


              Asus2   C      F    Dmin
but there's a light on in Chicago
      Asus2   Em*        F   F 
and I know I should be home
        Asus2           C           F
all the colors of the street signs
       G                Asus2      Em*          F        F                 
they remind me of the pick-up truck out in front of your neighbor's house


you want apologies

girl, you might hold your breath

until your breathing stops forever, forever


1           3               0
...the only thing you'll get
              1           
is this curse on your lips
1           3         0         1
I hope they taste of me forever


             1       3        0     1
and there's a light on in Chicago
      1       3       0     1
and I know I should be home
         1            3           0
all the colors of the street signs
       1                Asus2              
they remind me of the pickup truck out in front of your neighbor's


Asus         C                 F           Dmin      Asus Em*  F  F
with every breath I wish your body would be broken again... again.
Asus         C                 F           Dmin      Asus Em*  F  F
with every breath I wish your body would be broken again... again.
Asus         C                 F           Dmin      Asus Em*  F  F
with every breath I wish your body would be broken again... again.
Asus         C                 F           Dmin      Asus  Em*  F
with every breath I wish your body would be broken again...    again...
-------------------------------------------------------------------------------------------------------------
Title: "The Pros and Cons of Breathing"
Written By: Pete Wentz

VERSE 1:G#                     E                 F#                  E
        Bury me standing under your window with this cinder block in hand
        G#                     E               F#        E
        Yeah cause no one will ever feel like this again
        G#              E               F#               E
        And if I could move I'm sure it would only be to crawl back to you
        G#              Bb             E
        I must have dragged my guts a block they were gone by the time we...

PRE-CHORUS:G#          E                F#           E
           Woah I want to hate you half as much as I hate myself
           G#        Bb              E 
           You know that I could crush you with my voice
           G#          E                F#           E
           Woah I want to hate you half as much as I hate myself
           G#        Bb             E 
           You know that I could crush you with my voice

CHORUS:E             B        C#        Eb      E
       Stood on my roof and tried to see you forgetting about me
       E            B           C#      Eb      E
       Hide the details, I don't want to know a thing

VERSE 2:
        I hate the way you say my name like it's something secret
        My pen is the barrel of the gun
        Remind me which side you should be on

REPEAT PRE-CHORUS

REPEAT CHORUS

BRIDGE:E            Ab            Bb          B
       I wish that I was as invisible as you make me feel
       E            Ab            Bb          B
       I wish that I was as invisible as you make me feel

REPEAT PRE-CHORUS
-------------------------------------------------------------------------------------------------------------
Title: "Grenade Jumper"
Written By: Patrick Stump and Pete Wentz

*SPECIAL THANKS TO SCHECTER MAN*

Intro    1x   Guitar 1
|--------------------------------------|
|--------------------------------------|
|--7777777-----------------------------|
|--7777777-777-55555-777-999-444-55555-|
|--5555555-777-55555-777-999-444-55555-|
|----------555-33333-555-777-222-33333-|

Guitar 1   2x
|-------------------------------------------|
|-------------------------------------------|
|--77777------------------------------------|
|--77777-7-55555-7-999-444-55555------------|
|--55555-7-55555-7-999-444-55555------------|
|--------5-33333-5-777-222-33333------------|

Guitar 2  2x
|-----------------------------------------------|
|-----------------------------------------------|
|--9999-11111111-9999-7777-999-111111-9999-7777-|
|--xxxx--x-x-x-x-xxxx-xxxx-xxx--x-x-x-xxxx-xxxx-|
|--7777--9-9-9-9-7777-5555-777--9-9-9-7777-5555-|
|-----------------------------------------------|

Guitar 1                   Guitar 2

|---|-----------|        |-----|-----|-----|
|---|-----------|        |-----|-----|-----|
|---|-----------|        |--7--|-11--|--7--|
|-5-|--5--------|        |--x--|--x--|--x--|
|-5-|--5--------|        |--5--|--9--|--5--|
|-3-|--3--------|        |-----|-----|-----|
     PM over and over      25x   10x   25x

Both Guitars   1x

|-----------------------------------------|
|-----------------------------------------|
|-----------------------------------------|
|-22222-4-55555-7-999-444-55555-22222-4-5-|
|-22222-4-55555-7-999-444-55555-22222-4-5-|
|-00000-2-33333-5-777-222-33333-00000-2-3-|

Both Guitars    "HEY CHRIS"

|-----------------------------------------------------|
|-----------------------------------------------------|
|-7777-111111-999-6666-111111-999-777-111111-999-6666-|
|-xxxx--x-x-x-xxx-xxxx--x-x-x-xxx-xxx--x-x-x-xxx-xxxx-|
|-5555--9-9-9-777-4444--9-9-9-777-555--9-9-9-777-4444-|
|-----------------------------------------------------|

Guitar 1 

|---------------------------------------------|
|---------------------------------------------|
|---------------------------------------------|
|-222-2-555-5-222-2-555-5-222-2-555-5-222-2-5-|
|-222-2-555-5-222-2-555-5-222-2-555-5-222-2-5-|
|-000-0-333-3-000-0-333-3-000-0-333-3-000-0-3-|
  PM~   PM~   PM~   PM~   PM~   PM~   PM~

Guitar 2

|---------------------------------------------------|
|---------------------------------------------------|
|-7777-11111111-7777-11111111-7777-11111111-7777-11-|
|-xxxx--x-x-x-x-xxxx--x-x-x-x-xxxx--x-x-x-x-xxxx--x-|
|-5555--9-9-9-9-5555--9-9-9-9-5555--9-9-9-9-5555--9-|
|---------------------------------------------------|

Guitar 1  2x "theyll say its not worth it"

|--------------------------------------------------------|
|--------------------------------------------------------|
|--------------------------------------------------------|
|-4444444-2222222-4444444-5555555-4444444-2222222-555----|
|-4444444-2222222-4444444-5555555-4444444-2222222-555----|
|-2222222-0000000-2222222-3333333-2222222-0000000-333----|
  ~~~~~~~~~~~~~~~~~~~~~~~PM~~~~~~~~~~~~~~~~~~~~~~

Guitar 2  (second time)

|-----|-----|-----|
|-----|-----|-----|
|--7--|-11--|--7--|
|--x--|--x--|--x--|
|--5--|--9--|--5--|
|-----|-----|-----|
  25x   10x   15x

Both Guitars   1x

|-----------------------------------------|
|-----------------------------------------|
|-----------------------------------------|
|-22222-4-55555-7-999-444-55555-22222-4-5-|
|-22222-4-55555-7-999-444-55555-22222-4-5-|
|-00000-2-33333-5-777-222-33333-00000-2-3-|

Both Guitars  2x   "HEY CHRIS"

|-----------------------------------------------------|
|-----------------------------------------------------|
|-7777-111111-999-6666-111111-999-777-111111-999-6666-|
|-xxxx--x-x-x-xxx-xxxx--x-x-x-xxx-xxx--x-x-x-xxx-xxxx-|
|-5555--9-9-9-777-4444--9-9-9-777-555--9-9-9-777-4444-|
|-----------------------------------------------------|

Guitar 1   7x      Guitar 2   7x

|-------------|    |---------------|
|-------------|    |---------------|
|-------------|    |-7777-11111111-|
|-222-2-555-5-|    |-xxxx--x-x-x-x-|
|-222-2-555-5-|    |-5555--9-9-9-9-|
|-000-0-333-3-|    |---------------|
  PM~   PM~  

Guitar 2

|------------------------|
|------------------------|
|-11---11---11---11---11-|
|--x----x----x----x----x-|
|--9----9----9----9----9-|
|------------------------|

Guitar 1

|-----------------|
|-----------------|
|-----------------|
|-2---------5-----|
|-2-hold----5-----|
|-0---------3-----|

Guitar 1                           Then Guitar 2 goes

|-------------------------------|---------------------|
|-------------------------------|---------------------|
|-------------------------------|---7777777-----------|
|-7--777777777777777--7---------|---xxxxxxx-----------|
|-7--777777777777777--7---------|---5555555-----------|
|-5--555555555555555--5---------|---------------------|
     ~~~~~~~PM~~~~~~ 

Both Guitars  3x   "HEY CHRIS"

|-----------------------------------------------------|
|-----------------------------------------------------|
|-7777-111111-999-6666-111111-999-777-111111-999-6666-|
|-xxxx--x-x-x-xxx-xxxx--x-x-x-xxx-xxx--x-x-x-xxx-xxxx-|
|-5555--9-9-9-777-4444--9-9-9-777-555--9-9-9-777-4444-|
|-----------------------------------------------------|

End

|-----|
|-----|
|-----|
|--7--|
|--7--|
|--5--|
-------------------------------------------------------------------------------------------------------------
Title: "Calm Before the Storm"
Written By: Patrick Stump and Pete Wentz
Guitar 1 (Standard Tuning)

intro

E|--------------------------------------------------------------|
B|--------------------------------------------------------------|
G|--------------------------------------------------------------|
D|----------------------------------------7~----7~----7~----7~--|
A|--0-0-4h5--0-0-4h5------4-------2----55----44-----------------| (x3)
E|--------------------2-2---2-0-0---0--------------77----77-----|
    . .      . .      . . . . . . . .

E|---------------------------------|
B|---------------------------------|
G|---------------------x\x-7~---7--|
D|---------------------x\x-7~---7--|
A|--0-0-4h5--0-0-4h5---x\x-5~---5--| (x1)
E|---------------------------------|
    . .      . .      

verse (fast transition from intro)

E|------------------------------------------|
B|------------------------------------------|
G|--2-222222--------------------------------|
D|--2-222222--2-222222--4-444444--2-222222--|
A|--0-000000--2-222222--4-444444--2-222222--| (x1)
E|------------0-000000--2-222222--0-000000--|
      ......    ......    ......    ......

E|------------------------------------------|
B|------------------------------------------|
G|--2-222222-------------------4444/666666--|
D|--2-222222--7-777777--4-4444-xxxx/xxxxxx--|
A|--0-000000--7-777777--4-4444-2222/444444--| (x1)
E|------------4-444444--2-2222--------------|
      ......    ......    ....

E|------------------------------------------|
B|------------------------------------------|
G|--2-222222--------------------------------|
D|--2-222222--2-222222--4-444444--2-222222--|
A|--0-000000--2-222222--4-444444--2-222222--| (x1)
E|------------0-000000--2-222222--0-000000--|
      ......    ......    ......    ......

E|-----------------------------------------|
B|-----------------------------------------|
G|--2-222222--------------66666-4-44-66-7--|
D|--2-222222--7-777777--4-xxxxx-x-xx-xx-x--|
A|--0-000000--7-777777--4-44444-2-22-44-5--| (x1)
E|------------4-444444--2------------------|
      ......    ......

pre-chorus (hard to hear, listen to the song for timing)

E|---------------------------------------|
B|---------------------------------------|
G|--77777777-77777777-66666666-44444444--|
D|--xxxxxxxx-xxxxxxxx-xxxxxxxx-xxxxxxxx--|
A|--55555555-55555555-44444444-22222222--| (x4)
E|---------------------------------------|

chorus

E|-------------------------------------------------------|
B|-------------------------------------------------------|
G|--22-22--------------------------x\x-2-2-2-2-----------|
D|--22-22--22-22-x-x-x-xxxx-44-44--x\x-2-2-2-2--2-2-2-2--|
A|--00-00--22-22-x-x-x-xxxx-44-44--x\x-0-0-0-0--2-2-2-2--| (x2)
E|---------00-00-x-x-x-xxxx-22-22---------------0-0-0-0--|

verse

E|--------------------------------------------------------------|
B|--------------------------------------------------------------|
G|--------------------------------------------------------------|
D|----------------------------------------7~----7~----7~----7~--|
A|--0-0-4h5--0-0-4h5------4-------2----55----44-----------------| (x3)
E|--------------------2-2---2-0-0---0--------------77----77-----|
    . .      . .      . . . . . . . .

E|--------------------------------------------------|
B|--------------------------------------------------|
G|-------------------------------------7~--7-7-7-7--|
D|-------------------------------------7~--7-7-7-7--|
A|--0-0-4h5--0-0-4h5------4-------2----5~--5-5-5-5--| (x1)
E|--------------------2-2---2-0-0---0---------------|
    . .      . .      . . . . . . . .

E|------------------------------------------|
B|------------------------------------------|
G|--2-222222--------------------------------|
D|--2-222222--2-222222--4-444444--2-222222--|
A|--0-000000--2-222222--4-444444--2-222222--| (x1)
E|------------0-000000--2-222222--0-000000--|
      ......    ......    ......    ......

E|------------------------------------------|
B|------------------------------------------|
G|--2-222222-------------------9999\777777--|
D|--2-222222--7-777777--4-4444-xxxx\xxxxxx--|
A|--0-000000--7-777777--4-4444-7777\555555--| (x1)
E|------------4-444444--2-2222--------------|
      ......    ......    ....

E|------------------------------------------|
B|------------------------------------------|
G|--2-222222--------------------------------|
D|--2-222222--2-222222--4-444444--2-222222--|
A|--0-000000--2-222222--4-444444--2-222222--| (x1)
E|------------0-000000--2-222222--0-000000--|
      ......    ......    ......    ......

E|-----------------------------------------|
B|-----------------------------------------|
G|--2-222222--------------66666-4-44-66-7--|
D|--2-222222--7-777777--4-xxxxx-x-xx-xx-x--|
A|--0-000000--7-777777--4-44444-2-22-44-5--| (x1)
E|------------4-444444--2------------------|
      ......    ......

pre-chorus (hard to hear, listen to the song for timing)

E|---------------------------------------|
B|---------------------------------------|
G|--77777777-77777777-66666666-44444444--|
D|--xxxxxxxx-xxxxxxxx-xxxxxxxx-xxxxxxxx--|
A|--55555555-55555555-44444444-22222222--| (x4)
E|---------------------------------------|

chorus (different, listen for timing)

E|------------------------------------|
B|------------------------------------|
G|----22--22--44--44--22--22--44--44--|
D|------------------------------------|
A|--00--00--00--00--00--00--00--00----| (x1)
E|------------------------------------|
    ..  ..  ..  ..  ..  ..  ..  ..

E|------------------------------------|
B|------------------------------------|
G|----22--22--44--44--22--22--11--11--|
D|------------------------------------|
A|--00--00--00--00--00--00--00--00----| (x1)
E|------------------------------------|
    ..  ..  ..  ..  ..  ..  ..  ..

E|------------------------------------|
B|------------------------------------|
G|----22--22--44--44--22--22--44--44--|
D|------------------------------------|
A|--00--00--00--00--00--00--00--00----| (x1)
E|------------------------------------|
    ..  ..  ..  ..  ..  ..  ..  ..

E|------------------------------------|
B|------------------------------------|
G|----22--22--44--44--22--22--11--11--|
D|------------------------------------|
A|--00--00--00--00--00--00--00--00----| (x1)
E|------------------------------------|
    ..  ..  ..  ..  ..  ..  ..  ..

bridge

E|-------------------------------------------------------------------|
B|-------------------------------------------------------------------|
G|-------------------------------------------------------------------|
D|-------------------------------------------------------------------|
A|--0-0-4h5-0-7-0-5-0-0-4h5-0-7-0-5-0-0-4h5-0-7-0-5-0-0-4h5-0-7-0-5--| (x4)
E|-------------------------------------------------------------------|
    . .     . . . . . .     . . . . . .     . . . . . .     . . . .

E|---------------------------------------------------|
B|---------------------------------------------------|
G|-----------------------------------777777-666-777--|
D|-----------------------------------xxxxxx-xxx-xxx--|
A|--0-0-4h5-0-7-0-5-0-0-4h5-0-7-0-5--555555-444-555--| (x1)
E|---------------------------------------------------|
    . . 

E|--------------------------------|
B|--------------------------------|
G|--777777-666-777-999999-999999--|
D|--xxxxxx-xxx-xxx-xxxxxx-xxxxxx--|
A|--555555-444-555-777777-777777--| (x4)
E|--------------------------------|

E|---------------------------------------------------|
B|---------------------------------------------------|
G|--2~-----------------------------------------------|
D|--2~---(rest then use feedback for ringing noise)--|
A|--0~-----------------------------------------------| (x1)
E|---------------------------------------------------|

outro

E|----------------------------------------------|
B|----------------------------------------------|
G|--------------------------22222222------------|
D|--x\x--44444444-44444444--22222222--22222222--|
A|--x\x--44444444-44444444--00000000--22222222--| (x1)
E|--x\x--22222222-22222222------------00000000--|

E|----------------------------------------|
B|----------------------------------------|
G|--22222222-22222222---------------------|
D|--22222222-22222222--22222222-22222222--|
A|--00000000-00000000--22222222-22222222--| (x1)
E|---------------------00000000-00000000--|

E|-----------------------------------------|
B|-----------------------------------------|
G|---------------------22222222------------|
D|--44444444-44444444--22222222--22222222--|
A|--44444444-44444444--00000000--22222222--| (x1)
E|--22222222-22222222------------00000000--|

E|----------------------------------------|
B|----------------------------------------|
G|--22222222-22222222---------------------|
D|--22222222-22222222--22222222-22222222--|
A|--00000000-00000000--22222222-22222222--| (x1)
E|---------------------00000000-00000000--|

E|-----------------------------------|
B|-----------------------------------|
G|---------------------7~--6--7--2~--|
D|--44444444-44444444--x---x--x--2~--|
A|--44444444-44444444--5---4--5--0~--| (x1)
E|--22222222-22222222----------------|
-------------------------------------------------------------------------------------------------------------
Title: "Reinventing the Wheel to Run Myself Over"
Written By: Patrick Stump and Pete Wentz

*SPECIAL THANKS TO STEPHEN ADAMS*
Intro:
e|------------------------------------------------------------|
B|------------------------------------------------------------|
G|-44-422-24-------888888-999999-131313131313-161616161616----|
D|-44-422-24-------xxxxxx-xxxxxx--x-x-x-x-x-x--x-x-x-x-x-x----|
A|-22-200-02-------666666-777777-111111111111-141414141414----|
E|------------------------------------------------------------|

Verse:
e|------------------------------------------------------------|
B|------------------------------------------------------------|
G|-44444444-66666666------------------------------------------|x4
D|-44444444-66666666-2222222222222222-------------------------|
A|-22222222-44444444-2222222222222222-------------------------|
E|-------------------0000000000000000-------------------------|

Pre Chorus:
e|------------------------------------------------------------|
B|------------------------------------------------------------|
G|-4-6--------------------------------------------------------|
D|-4-6-44444444-22222222-44444444-22222222-44444444-2-2-2-2---|
A|-2-4-44444444-22222222-44444444-22222222-44444444-2-2-2-2---|
E|-----22222222-00000000-22222222-00000000-22222222-0-0-0-0---|
                          *******  *******
Chorus: Guitar 1
e|------------------------------------------------------------|
B|----4h5p4----4h5p4----4h5p4----4h5p4------------------------|
G|-4-4-----4-44-----4-44-----4-44-----4-----------------------|x4
D|------------------------------------------------------------|
A|------------------------------------------------------------|
E|------------------------------------------------------------|

Chorus: Guitar 2
e|------------------------------------------------------------|
B|------------------------------------------------------------|
G|-4-xxxx-6-xxxx----------------------------------------------|x4
D|-4-xxxx-6-xxxx-2-xxxx--66-44--------------------------------|
A|-2-xxxx-4-xxxx-2-xxxx--66-44--------------------------------|
E|---------------0-xxxx--44-22--------------------------------|

Bridge:
e|------------------------------------------------------------|
B|------------------------------------------------------------|
G|-424-xxxx-6-xxxx--------------------------------------------|
D|-424-xxxx-6-xxxx-2-xxxx-66-44-------------------------------|
A|-202-xxxx-4-xxxx-2-xxxx-66-44-------------------------------|
E|-----------------0-xxxx-44-22-------------------------------|

Bridge Cont. 
e|------------------------------------------------------------|
B|------------------------------------------------------------|
G|-4-xxxx-6-xxxx----------------------------------------------|
D|-4-xxxx-6-xxxx-22222-66-44----------------------------------|
A|-2-xxxx-4-xxxx-22222-66-44----------------------------------|
E|---------------00000-44-22----------------------------------|

3rd Chorus:
e|------------------------------------------------------------|
B|------------------------------------------------------------|
G|-44444444-66666666------------------------------------------|x4
D|-44444444-66666666-22222222-66-44---------------------------|
A|-22222222-44444444-22222222-66-44---------------------------|
E|-------------------00000000-44-22---------------------------|

This comes in the end 
e|------------------------------------------------------------|
B|----4h5p4----4h5p4----4h5p4----4h5p4------------------------|
G|-4-4-----4-44-----4-44-----4-44-----4-----------------------|x2
D|------------------------------------------------------------|
A|------------------------------------------------------------|
E|------------------------------------------------------------|

End with:
e|------------------------------------------------------------|
B|------------------------------------------------------------|
G|-------4----------------------------------------------------|
D|-2--4--4--2-------------------------------------------------|
A|-2--4--2--2-------------------------------------------------|
E|-0--2-----0-------------------------------------------------|

Order

intro
verse
pre chorus
chorus
verse
prechorus
chorus
bridge
3rd chorus
end part
-------------------------------------------------------------------------------------------------------------
Title: "The Patron Saint of Liars and Fakes"
Written By: Patrick Stump and Pete Wentz

VERSE 1:F         Dm         Am      Bb 
        I'm holding out and I'm holding on
        F        Am         Bb
        To every letter and every song
        F                  Dm                Am           Bb
        I pulled myself out of the day we ever had to meet
        F        Am            Bb
        Are you through with me?

CHORUS:Bb             F
       And when it all goes to hell
       Dm           C       Bb            F
       Will you be able to tell me you're sorry
              C
       With a straight face?
       Bb             F
       And when it all goes to hell
       Dm           C       Bb            F
       Will you be able to tell me you're sorry
              C
       With a straight face?

VERSE 2:
        I'm all ears and I'm all scars
        To hear you tell me "boys like you, you try too hard"
        To look not quite as desperate, I'm hanging on
        But I still know the way to make your makeup run

REPEAT CHORUS
-------------------------------------------------------------------------------------------------------------
That is the end of FOB's first album, thank you to everyone who unintentionally contributed to the 
making of this tab. I apologize for getting lazy on some these songs. Hope you enjoyed!
Добавлено: 10.03.2016
Другие материалы по этой песне:

Страница создана 01.03.2012
http://primanota.ru/fall-out-boy/take-this-to-your-grave-album-chords.htm
Привет, Гость.
Предлагаем пройти революционный курс по гитаре.
Подарок от PrimaNota.Ru, забирай!