PrimaNota.ru - самый крупный в мире бесплатный архив песенных текстов, аккордов, табулатур и нот


Fall Out Boy - So Sick - текст песни, таба, видео

Регистрация Запомнить меня
Войти через:  Facebook Google Twitter Vk Yandex Mail.ru

Fall Out Boy - So Sick - текст песни, таба, видео

Печатать
Просмотров: 1793
Авторы: Tor Erik Hermansen, John Bettis, Mikkel Storleer Eriksen, Steve Porcaro, Shaffer Smith

I noticed that there were no tabs for the Patrick Stump version of this song so I 
to tab it out and submit it. Listen to the song for the timing, it's really quite simple.

Intro: Play as many times as needed
e|--------------------|
B|--7-----4----0---6--|
G|--------------------|
D|--------------------|
A|-6-6-\-2-2\-----4-4-|
E|------------4-4/----|

Verse: Again, play as many times as needed
e|-------------------|
B|--7---4----0--6----|
G|-------------------|
D|-------------------|
A|-6--2--------4-----|
E|----------4--------|

Chorus: Play each chord as many times as needed it's easy to figure out the rhythm and everything.

e|-6----------|
B|-7--4-----6-|
G|-6--4--6--6-|
D|-8--4--6--6-|
A|-6--2--6--4-|
E|-------4----|

Bridge: (Leave me alone, stupid love songs.......) - Again, listen for rhythm and 
And play each chord as needed.

e|-----
B|-6--4
G|-6--4
D|-6--4
A|-4--2
E|-----

It then goes back to the chorus twice and ends with

e|---
B|---
G|-9\
D|-9\
A|-9\
E|-7\

-----------------------

And there you have it. This tab is pretty much exactly right, I know sometimes he plucks 
strings but this will definitely get you there. Please rate this.
Добавлено: 31.03.2012
Другие материалы по этой песне:

Страница создана 31.03.2012
http://primanota.ru/fall-out-boy/so-sick-chords.htm
Привет, Гость.
Предлагаем пройти революционный курс по гитаре.
Подарок от PrimaNota.Ru, забирай!