PrimaNota.ru - самый крупный в мире бесплатный архив песенных текстов, аккордов, табулатур и нот


Fall Out Boy - Sending Postcards From A Plane Crash Wish You Were Here - текст песни, бас-таба, видео

Регистрация Запомнить меня
Войти через:  Facebook Google Twitter Vk Yandex Mail.ru

Fall Out Boy - Sending Postcards From A Plane Crash Wish You Were Here - текст песни, бас-таба, видео

Печатать
Просмотров: 122
Авторы текста: Pete Wentz, Patrick Stump
G||------------------------------------------------------------|
D||------------------------------------------------------------|
A||------------------------------------------------------------|
E||--5---------------------------------------------------------|


------------------------------------------------------|------------------------|
------------------------------------------------------|------------------------|
------------------------------------------------------|---------------------4--|
--0----0--0--0--0-------------------------------0--0--|--2----2----4--4--4-----|


------------------------|---------------------------|------------------------|
------------------------|---------------------------|------------------------|
--L----4----4--4--4--4--|--0----0--0--0h--2p--0-----|------------------------|
------------------------|------------------------0--|--L----0----0--0--0--0--|


------------------------|------------------------|--------------------------|
------------------------|------------------------|--------------------------|
---------------------4--|--L----4----4--4--4--4--|--------------------------|
--2----2----4--4--4-----|------------------------|--5--5--5--5--5--5--5--5--|


-------------------|-------------------|----------------------|
-------------------|-------------------|----------------------|
-------------------|-------------------|----------------------|
--5----------------|--L----------------|--0--0----------------|


----------------------|----------------------|----------------------|
----------------------|----------------------|----------------------|
----------------------|----------------------|----------------------|
--2--2----------------|--4--4----------------|--5--5----------------|


----------------------|----------------------|----------------------|
----------------------|----------------------|----------------------|
----------------------|----------------------|----------------------|
--0--0----------------|--2--2----------------|--4--4----------------|


----------------------|--------------------------|--------------------------|
----------------------|--------------------------|--------------------------|
----------------------|--------------------------|--------------------------|
--5----5----5----5----|--0--0--0--0--0--0--0--0--|--2--2--2--2--2--2--2--2--|


--------------------------|--------------------------|
--------------------------|--------------------------|
--------------------------|--------------------------|
--4--4--4--4--4--4--4--4--|--5--5--5--5--5--5--5--5--|


--------------------------|--------------------------|
--------------------------|--------------------------|
--------------------------|--------------------------|
--0--0--0--0--0--0--0--0--|--2--2--2--2--2--2--2--2--|


--------------------------|--------------------------|------------------------|
--------------------------|--------------------------|------------------------|
--------------------------|--------------------------|------------------------|
--4--4--4--4--4--4--4--4--|--5--5--5--5--5--5--5--5--|--5----5----5--5--5--5--|


------------------------|------------------------|-----------------------|
------------------------|------------------------|-----------------------|
------------------------|------------------------|-----------------------|
--L----5----5--5--5--5--|--2----2----2--2--2--2--|--L----2----2--2--4----|


------------------------|------------------------|-------------------------|
------------------------|------------------------|-------------------------|
------------------------|------------------------|--4--4--4--4-------2--2--|
--5----5----5--5--5--5--|--L----5----5--5--5--5--|-------------------------|


-------------------------|------------------------|------------------------|
-------------------------|------------------------|------------------------|
--2--2-----2--2--4-------|------------------------|------------------------|
----------------------5--|--L----5----5--5--5--5--|--L----5----5--5--5--5--|


------------------------|-----------------------|------------------------|
------------------------|-----------------------|------------------------|
------------------------|-----------------------|------------------------|
--2----2----2--2--2--2--|--L----2----2--2--4----|--5----5----5--5--5--5--|


------------------------|----------------------|-------------------|
------------------------|----------------------|-------------------|
------------------------|----------------------|-------------------|
--L----5----5--5--5--5--|--5\------------------|-------------------|


----------------------|-----------------------|-----------------------|
----------------------|-----------------------|-----------------------|
----------------------|-----------------------|-----------------------|
--0-------------0--2--|--L--------------2--5--|--L--------------5--4--|


--------------------------|----------------------|-----------------------|
--------------------------|----------------------|-----------------------|
--------------------------|----------------------|-----------------------|
--L--4--4--4--4--5--5--5--|--0-------------0--2--|--L--------------2--5--|


-----------------------|--------------------------|----------------------|
-----------------------|--------------------------|----------------------|
-----------------------|--------------------------|----------------------|
--L--------------5--4--|--L--4--4--4--4--5--5--5--|--0-------------0--2--|


-----------------------|-----------------------|--------------------------|
-----------------------|-----------------------|--------------------------|
-----------------------|-----------------------|--------------------------|
--L--------------2--5--|--L--------------5--4--|--L--4--4--4--4--5--5--5--|


----------------------|-----------------------|-----------------------|
----------------------|-----------------------|-----------------------|
----------------------|-----------------------|-----------------------|
--0-------------0--2--|--L--------------2--5--|--L--------------5--4--|


--------------------------|------------------------|------------------------|
--------------------------|------------------------|------------------------|
--------------------------|------------------------|------------------------|
--L--4--4--4--4--5--5--5--|--0----0----0--0--0--2--|--L----2----2--2--2--4--|


------------------------|------------------------|------------------------|
------------------------|------------------------|------------------------|
------------------------|------------------------|------------------------|
--L----4----4--4--4--5--|--L----5----5--5--5--5--|--0----0----0--0--0--2--|


------------------------|------------------------|------------------------|
------------------------|------------------------|------------------------|
------------------------|------------------------|------------------------|
--L----2----2--2--2--4--|--L----4----4--4--4--5--|--L----5----5--5--5--5--|


--------------------------|--------------------------|
--------------------------|--------------------------|
--------------------------|--------------------------|
--0--0--0--0--0--0--0--0--|--2--2--2--2--2--2--2--2--|


--------------------------|--------------------------|
--------------------------|--------------------------|
--------------------------|--------------------------|
--4--4--4--4--4--4--4--4--|--5--5--5--5--5--5--5--5--|


--------------------------|--------------------------|
--------------------------|--------------------------|
--------------------------|--------------------------|
--0--0--0--0--0--0--0--0--|--2--2--2--2--2--2--2--2--|


--------------------------|--------------------------|------------------------|
--------------------------|--------------------------|------------------------|
--------------------------|--------------------------|------------------------|
--4--4--4--4--4--4--4--4--|--5--5--5--5--5--5--5--5--|--5----5----5--5--5--5--|


------------------------|------------------------|-----------------------|
------------------------|------------------------|-----------------------|
------------------------|------------------------|-----------------------|
--L----5----5--5--5--5--|--2----2----2--2--2--2--|--L----2----2--2--4----|


------------------------|------------------------|-------------------------|
------------------------|------------------------|-------------------------|
------------------------|------------------------|--4--4--4--4-------2--2--|
--5----5----5--5--5--5--|--L----5----5--5--5--5--|-------------------------|


-------------------------|------------------------|------------------------|
-------------------------|------------------------|------------------------|
--2--2-----2--2--4-------|------------------------|------------------------|
----------------------5--|--L----5----5--5--5--5--|--L----5----5--5--5--5--|


------------------------|-----------------------|------------------------|
------------------------|-----------------------|------------------------|
------------------------|-----------------------|------------------------|
--2----2----2--2--2--2--|--L----2----2--2--4----|--5----5----5--5--5--5--|


------------------------|----------------------|-------------------|
------------------------|----------------------|-------------------|
------------------------|----------------------|-------------------|
--L----5----5--5--5--5--|--5\------------------|-------------------|


----------------------|-----------------------|-----------------------|
----------------------|-----------------------|-----------------------|
----------------------|-----------------------|-----------------------|
--0-------------0--2--|--L--------------2--5--|--L--------------5--4--|


--------------------------|----------------------|-----------------------|
--------------------------|----------------------|-----------------------|
--------------------------|----------------------|-----------------------|
--L--4--4--4--4--5--5--5--|--0-------------0--2--|--L--------------2--5--|

-----------------------|--------------------------|----------------------|
-----------------------|--------------------------|----------------------|
-----------------------|--------------------------|----------------------|
--L--------------5--4--|--L--4--4--4--4--5--5--5--|--0-------------0--2--|


-----------------------|-----------------------|--------------------------|
-----------------------|-----------------------|--------------------------|
-----------------------|-----------------------|--------------------------|
--L--------------2--5--|--L--------------5--4--|--L--4--4--4--4--5--5--5--|


----------------------|-----------------------|-----------------------|
----------------------|-----------------------|-----------------------|
----------------------|-----------------------|-----------------------|
--0-------------0--2--|--L--------------2--5--|--L--------------5--4--|


--------------------------|---------------------|-------------------|
--------------------------|---------------------|-------------------|
--------------------------|---------------------|-------------------|
--L--4--4--4--4--5--5--5--|--0------------------|-------------------|


-----------------------|------------------------|-----------------------|
-----------------------|------------------------|-----------------------|
-----------------------|------------------------|--4----L--4----4--4----|
--2----L--2----L--2----|--L----2----2--2--2--2--|-----------------------|


------------------------|-----------------------|------------------------|
------------------------|-----------------------|------------------------|
--L----4----4--4--4--4--|-----------------------|------------------------|
------------------------|--5----L--5----L--5----|--L----5----5--5--5--5--|


-----------------------|------------------------|-----------------------|
-----------------------|------------------------|-----------------------|
-----------------------|------------------------|-----------------------|
--0----L--0----L--0----|--L----0----0--0--0--0--|--2----L--2----L--2----|


------------------------|-----------------------|------------------------|
------------------------|-----------------------|------------------------|
------------------------|--4----L--4----4--4----|--L----4----4--4--4--4--|
--L----2----2--2--2--2--|-----------------------|------------------------|


-----------------------|------------------------|-----------------------|
-----------------------|------------------------|-----------------------|
-----------------------|------------------------|-----------------------|
--5----L--5----L--5----|--L----5----5--5--5--5--|--0-------0-------0----|


-------------------|-------------------|-------------------|
-------------------|-------------------|-------------------|
-------------------|-------------------|-------------------|
-------------------|--2----------------|--L----------------|


-------------------------|--------------------|-------------------|
-------------------------|--------------------|-------------------|
--4-------4-------4s--7--|--6-----------------|-------------------|
-------------------------|-----------7--------|--5----------------|


-------------------|-----------------------|-------------------|
-------------------|-----------------------|-------------------|
-------------------|-----------------------|-------------------|
--L----------------|--0-------0-------0----|-------------------|

-------------------|-------------------|-------------------|-------------------|
-------------------|-------------------|-------------------|-------------------|
-------------------|-------------------|--4----------------|--L----------------|
--2----------------|--L----------------|-------------------|-------------------|


-------------------|-------------------|-------------------|-------------------|
-------------------|-------------------|-------------------|-------------------|
--0----------------|--L----------------|-------------------|-------------------|
-------------------|-------------------|-------------------|-------------------|


-------------------|-------------------|-------------------|-------------------|
-------------------|-------------------|-------------------|-------------------|
-------------------|-------------------|-------------------|-------------------|
-------------------|-------------------|-------------------|-------------------|


-------------------------|-------------------------|------------------------|
-------------------------|-------------------------|------------------------|
--4--4--4--4-------2--2--|--2--2-----2--2--4-------|------------------------|
-------------------------|----------------------5--|--L----5----5--5--5--5--|


------------------------|------------------------|-----------------------|
------------------------|------------------------|-----------------------|
------------------------|------------------------|-----------------------|
--L----5----5--5--5--5--|--2----2----2--2--2--2--|--L----2----2--2--4----|


------------------------|------------------------|---------------------|
------------------------|------------------------|---------------------|
------------------------|------------------------|---------------------|
--5----5----5--5--5--5--|--L----5----5--5--5--5--|--5\-----------------|
Добавлено: 27.06.2012
Другие материалы по этой песне:
  • Аккорды и текст

Страница создана 27.06.2012
http://primanota.ru/fall-out-boy/sending-postcards-from-a-plane-crash-wish-you-were-here-chords.htm
Привет, Гость.
Предлагаем пройти революционный курс по гитаре.
Подарок от PrimaNota.Ru, забирай!