PrimaNota.ru - самый крупный в мире бесплатный архив песенных текстов, аккордов, табулатур и нот


Fall Out Boy - Moving Pictures - текст песни, таба, бас-таба, видео

Регистрация Запомнить меня
Войти через:  Facebook Google Twitter Vk Yandex Mail.ru

Fall Out Boy - Moving Pictures - текст песни, таба, бас-таба, видео

Печатать
Просмотров: 205
-------------------------------------------------------------------------------
                             Fall Out Boy - Moving Pictures
-------------------------------------------------------------------------------
Tabbed by: buba1986
Email: buba1986@hotmail.co.uk

Tuning: Standard

This is my first tab for Fall Out Boy so please enjoy. Sounds nearly 100% but i'll leave
for you to decide lol Please rate :o)

Guitar 1 Intro

e|-----------------------------------------------------------------------------|
B|----7-7-0-0------------------------------------------------------------------|
G|-----------------------------------------------------------------------------|
D|-----------------------------------------------------------------------------|
A|-----------------------------------------------------------------------------|
E|-----------------------------------------------------------------------------|

Guitar 2 Intro

e|---------------------------------------------------------------------------|
B|---------------------------------------------------------------------------|
G|-----------------------------------------------------------------3-x-x-----|
D|-2----2--------2----2--------6----2-------6----2-x-x-4-x-x-6-x-x-3-x-x-----|
A|-2----2--------2----2--------6----2-------6----2-x-x-4-x-x-6-x-x-1-x-x-----|
E|-0----0--------0----0--------4----0-------4----0-x-x-2-x-x-4-x-x-----------|

Verse (ALL VERSE PALM MUTING IS DONE WITH FAST ALTERNATE STROKES)

e|---------------------------------------------------------------------------|
B|---------------------------------------------------------------------------|
G|--4--4--X16----------------------------------------------------------------|
D|--4--4-------2--2--X16-----------------------------------------------------|
A|--2--2-------2--2----------------------------------------------------------|
E|----PM-------0--0----------------------------------------------------------|
                 PM
Pre-Chorus

e|---------------------------------------------------------------------------|
B|---------------------------------------------------------------------------|
G|------------------------------------------------x16------x4----------------|
D|--6--6--6---------------4--4--4---------------2------4---------------------|
A|--6--6--6--2h4p2--------4--4--4--2h4p2--------2------4---------------------|
E|--4--4--4--------4p2p0--2--2--2--------4p2p0--0------2---------------------|

                                                        Intro x4
e|-------------------------------------------------I-------------------------|
B|-------------------------------------------------I---7-7-0-0---------------|
G|-------------------------------------------------I-------------------------|
D|--6--6--6---------------4--4--4---------------2--I-------------------------|
A|--6--6--6--2h4p2--------4--4--4--2h4p2--------2--I-------------------------|
E|--4--4--4--------4p2p0--2--2--2--------4p2p0--0--I-------------------------|

Pre-Chorus 2nd part

e|---------------------------------------------------------------------------|
B|---------------------------------------------------------------------------|
G|--------------------3-x-x--------------------------------------------------|
D|--2-x-x-4-x-x-6-x-x-3-x-x--------------------------------------------------|
A|--2-x-x-4-x-x-6-x-x-1-x-x--------------------------------------------------|
E|--0-x-x-2-x-x-4-x-x--------------------------------------------------------|


Chorus

e|---------------------------------------------------------------------------|
B|----x8---------------------------------------------------------------------|
G|--4--------x8------x8-----x10----------------------------------------------|
D|--4-----2------6-------2---------------------------------------------------|
A|--2-----2------6-------2---------------------------------------------------|
E|--------0------4-------0---------------------------------------------------|


Guitar 1 Bridge

e|-----------------------------------------------------------------------------|
B|--7-7-0-0--------------------------------------------------------------------|
G|-----------------------------------------------------------------------------|
D|-----------------------------------------------------------------------------|
A|-----------------------------------------------------------------------------|
E|-----------------------------------------------------------------------------|

Guitar 2 Bridge

e|---------------------------------------------------------------------------|
B|---------------------------------------------------------------------------|
G|---------------------3--4--4----4--4----4--6-------------------------------|
D|--6--6----6--6----6--3--4--4----4--4----4--6--2--X10-----------------------|
A|--6--6----6--6----6--1--2--2----2--2----2--4--2----------------------------|
E|--4--4----4--4----4---------------------------0----------------------------|


                                  3rd Guitar part
e|---------------------------------------------I-----------------------------|
B|---------------------------------------------I----X4----X4----X8-----------|
G|---------------------------------------------I--9-----8----11--------------|
D|---------------------------------------------I-----------------------------|
A|---------------------------------------------I--7-----6-----9--------------|
E|---------------------------------------------I-----------------------------|


Guitar 1 Outro Part 1 (No Distortion)

e|---------------------------------------------------------------------------|
B|----x8---------------------------------------------------------------------|
G|--4--------x8------x8-----x10----------------------------------------------|
D|--4-----2------6-------2---------------------------------------------------|
A|--2-----2------6-------2---------------------------------------------------|
E|--------0------4-------0---------------------------------------------------|

Guitar 2 Outro Part 1

e|---------------------------------------------------------------------------|
B|----x64--------------------------------------------------------------------|
G|--4------------------------------------------------------------------------|
D|--4------------------------------------------------------------------------|
A|--2------------------------------------------------------------------------|
E|---------------------------------------------------------------------------|
    pm

Guitar 1 Outro Part 2

e|-----------------------------------------------------------------------------|
B|----7-7-0-0------------------------------------------------------------------|
G|-----------------------------------------------------------------------------|
D|-----------------------------------------------------------------------------|
A|-----------------------------------------------------------------------------|
E|-----------------------------------------------------------------------------|

Guitar 2 Outro part 2

e|---------------------------------------------------------------------------|
B|----x8---------------------------------------------------------------------|
G|--4--------x8------x8-----x10----------------------------------------------|
D|--4-----2------6-------2---------------------------------------------------|
A|--2-----2------6-------2---------------------------------------------------|
E|--------0------4-------0---------------------------------------------------|


Song Order (This is just a rough idea)

Guitar 1 intro - x36
Guitar 2 Intro
Verse - x4
Pre-Chorus
Pre-Chorus 2nd part
Chorus - x2
Pre-Chorus
Pre-Chorus 2nd part
Chorus - x2
Pre-Chorus
Pre-Chorus 2nd part
Guitar 1 bridge - x60 (I think)
Guitar 2 Bridge - x4
Pre-Chorus 2nd part
Chorus - x2
Guitar 1 Outro Part 1 - x4
Guitar 2 Outro Part 1
Guitar 1 Outro Part 2 - x60 (I think)
Guitar 2 Outro part 2 - x4


| /  slide up
| \  slide down
| h  hammer-on
| p  pull-off
| ~  vibrato
| +  harmonic
| x  Mute note
===============================================================================
Добавлено: 18.04.2012
Другие материалы по этой песне:
  • Аккорды и текст

Страница создана 18.04.2012
http://primanota.ru/fall-out-boy/moving-pictures-chords.htm
Привет, Гость.
Предлагаем пройти революционный курс по гитаре.
Подарок от PrimaNota.Ru, забирай!