PrimaNota.ru - самый крупный в мире бесплатный архив песенных текстов, аккордов, табулатур и нот


Fall Out Boy - Love Sex Death - бас-таба, видео

Регистрация Запомнить меня
Войти через:  Facebook Google Twitter Vk Yandex Mail.ru

Fall Out Boy - Love Sex Death - бас-таба, видео

Печатать
Просмотров: 182
-------------------------------------------------------------------------------
                             Love, Sex, Death - Fall Out Boy
-------------------------------------------------------------------------------
From: PAXX A.M DAYS

Thought I would tab out Fall Out Boy's new song. This song is very raw so timing 
is hard, be careful.



Tabbed by: Joshisonfire28 



Tuning: Standard (EADG)


            
            [Intro]
G|---------------------------------|
D|---------------------------------|
A|-2-50--22--50-22-50--55550000----|x2
E|--2-------2-----2----------------|


          [Verse]
G|--------------------------|
D|--------------------------|
A|-22222222--2-50--22-50----|x4
E|------------2------2------|


         [Pre-Chorus]
G|----------------------------------|
D|----------------------------------|
A|----------------------------------|x1
E|-222222222222222222222222222222---|


           [Chorus]
G|---------------------------------|
D|---------------------------------|
A|-2-50--22-50--22-50--55550000----|x2
E|--2------2------2----------------|


                      [Bridge]
G|-----------------------------------------------------------------|
D|-----------------------------------------------------------------|
A|-2222222222222222--2-50--22-50--2222222222222222---2-50--22-50---|x1
E|--------------------2------2------------------------2------2-----|


          [Pre-Chorus]
G|----------------------------------|
D|----------------------------------|
A|----------------------------------|x1
E|-222222222222222222222222222222---|


           [Chorus]
G|---------------------------------|
D|---------------------------------|
A|-2-50--22-50--22-50--55550000----|x2
E|--2------2------2----------------|
  *Play "End On" for the end of second time through chorus!!!*


     [End On]
G|----------------|
D|----------------|
A|-55550000-2\0---|
E|----------------|



| /  slide up
| \  slide down
| h  hammer-on
| p  pull-off
| ~  vibrato
| +  harmonic
| x  Mute note
===============================================================================
Добавлено: 29.08.2013
Другие материалы по этой песне:
  • Аккорды и текст

Страница создана 29.08.2013
http://primanota.ru/fall-out-boy/love-sex-death-chords.htm
Привет, Гость.
Предлагаем пройти революционный курс по гитаре.
Подарок от PrimaNota.Ru, забирай!