PrimaNota.ru - самый крупный в мире бесплатный архив песенных текстов, аккордов, табулатур и нот


Fall Out Boy - Ive Got All This Ringing In My Ears And None On My Fingers - текст песни, таба, бас-таба, видео

Регистрация Запомнить меня
Войти через:  Facebook Google Twitter Vk Yandex Mail.ru

Fall Out Boy - Ive Got All This Ringing In My Ears And None On My Fingers - текст песни, таба, бас-таба, видео

Печатать
Просмотров: 238
Artist: Fall Out Boy
Song: I've Got All This Ringing In My Ears And None On My Fingers
Album: Infinity On High

~ = Vibrato
/ = Slide Up
\ = Slide Down
. = Palm Mute
x = Dead Note (Mute)
> = Let Ring


Standard Tuning (EADGBE)


Verse
E-----------------------------------------------------------|              
B-----------------------------------------------------------|       
G-8-88-8-88-8-88-8-88-11-10-1010-10-1010-10-1010-10-1010-13-|       
D-----------------------------------------------------------|          
A-----------------------------------------------------------|       
E-----------------------------------------------------------| 

E----------------------------------------------------|              
B----------------------------------------------------|       
G--13-1313-13-1313-13-1111-11-1111-11-8>----\6>------|       
D----------------------------------------------------|          
A----------------------------------------------------|       
E----------------------------------------------------| 


Chorus x2

Guitar 1
E-------------------------------------------------|              
B-------------------------------------------------|       
G-4-4-4-4-4-4-4-4-9-9-9-9-9-9-9-9-4-4-4-4-4-4-4-4-|       
D-x-x-x-x-x-x-x-x-x-x-x-x-x-x-x-x-x-x-x-x-x-x-x-x-|          
A-2-2-2-2-2-2-2-2-7-7-7-7-7-7-7-7-2-2-2-2-2-2-2-2-|       
E-------------------------------------------------|

E-------------------------------------------------|              
B-------------------------------------------------|       
G-4-4-4-4-4-4-4-4-3-3-3-3-3-3-3-3-4-4-4-4-4-4-4-4-|       
D-x-x-x-x-x-x-x-x-x-x-x-x-x-x-x-x-x-x-x-x-x-x-x-x-|          
A-2-2-2-2-2-2-2-2-1-1-1-1-1-1-1-1-2-2-2-2-2-2-2-2-|       
E-------------------------------------------------|

Guitar 2           
E-------------------------------------------------|              
B-------------------------------------------------|       
G-----------------9-9-9-9-9-9-9-9-----------------|       
D-9-9-9-9-9-9-9-9-9-9-9-9-9-9-9-9-9-9-9-9-9-9-9-9-|          
A-9-9-9-9-9-9-9-9-7-7-7-7-7-7-7-7-9-9-9-9-9-9-9-9-|       
E-7-7-7-7-7-7-7-7-----------------7-7-7-7-7-7-7-7-|         
  
E-------------------------------------------------|              
B-------------------------------------------------|       
G-------------------------------------------------|       
D-6-6-6-6-6-6-6-6-4-4-4-4-4-4-4-4-2-2-2-2-2-2-2-2-|          
A-6-6-6-6-6-6-6-6-4-4-4-4-4-4-4-4-2-2-2-2-2-2-2-2-|       
E-4-4-4-4-4-4-4-4-2-2-2-2-2-2-2-2-0-0-0-0-0-0-0-0-| 


Bridge            
E-------------------------------------------------------------|              
B-------------------------------------------------------------|       
G--6-6-6-6-6-6h8p6\5---6-6-6-6-6-6h8p6\5-----------------8-11-|       
D--------------------6-------------------6--9~------9-11------|          
A-------------------------------------------------9-----------|       
E-------------------------------------------------------------|   
 
E----------------------------------------------------|              
B----------------------------------------------------|       
G--6-6-6-6-6-6h8p6\5---6-6-6-6-6-6h8p6\5-------------|       
D--------------------6-------------------6--9~-------|          
A----------------------------------------------------|       
E----------------------------------------------------| 


Pre Chorus
        .. . . . . .
E--------------------|              
B--------------------|       
G-4-----44-4-4-4-4-4-|      
D-4-----44-4-4-4-4-4-|          
A-2-----22-2-2-2-2-2-|       
E--------------------|
        .. . . . . .


< greater)>>


<>


Ending

Guitar 1
E-----------------------------|              
B-----------------------------|       
G-4-4-4-4-4-4-4-4-------------|       
D-x-x-x-x-x-x-x-x--2--1-------|          
A-2-2-2-2-2-2-2-2------2>-----|       
E-----------------------------|

Guitar 2
E-----------------------------|              
B-----------------------------|       
G-----------------------------|       
D-2-2-2-2-2-2-2-2>------------|          
A-2-2-2-2-2-2-2-2>------------|       
E-0-0-0-0-0-0-0-0>------------| 


Добавлено: 11.03.2012
Другие материалы по этой песне:

Страница создана 11.03.2012
http://primanota.ru/fall-out-boy/ive-got-all-this-ringing-in-my-ears-and-none-on-my-fingers-chords.htm
Привет, Гость.
Предлагаем пройти революционный курс по гитаре.
Подарок от PrimaNota.Ru, забирай!