PrimaNota.ru - самый крупный в мире бесплатный архив песенных текстов, аккордов, табулатур и нот


Fall Out Boy - Homesick At Space Camp - текст песни, таба, бас-таба, видео

Регистрация Запомнить меня
Войти через:  Facebook Google Twitter Vk Yandex Mail.ru

Fall Out Boy - Homesick At Space Camp - текст песни, таба, бас-таба, видео

Печатать
Просмотров: 259
Авторы текста: Pete Wentz, Patrick Stump
band: fall out boy
song: homesick at space camp

tabber: John Cukras
email: riffreaper@yahoo.com

tuning: normal

Intro:
E-----------------------------------------------------|
B-----------------------------------------------------|
G-----------------------------------------------------|
D-----------------------------------------------------|
A--------5-77777-999-7-5--------------5-77777-999-7-5-|
E-2-00-2-3-55555-777-5-3-0000--2-00-2-3-55555-777-5-3-|
pm                       ....

Riff 1: 12's , 11's.
E--------------------------------------------------|
B--------------------------------------------------|
G--------------------------------------------------|
D--------------------------------------------------|
A-4--------7-------9--------121212-111111-77-------|
E-2-000000-5-00000-7-00000------------------ x's 2-|
pm  ......   .....   .....

Riff 2:  Part A                                 Part B
E----------------------------------|-----------------------------------------------------------|
B----------------------------------|-----------------------------------------------------------|
G----------------------------------|-----------------------------------------------------------|
D----------------------------------|-----------------------------------------------------------|
A-4----4-7----7-9----9-11----------|--4---------7----------121212-111111-77--4----------9-7-4--|
E-2-00-2-5-00-5-7-00-7-9-00  x's 2-|--2-0000000-5-000000---------------------2-00000000-7-5-2--|
pm  ..     ..     ..     ..             .......   ......                       ........

Riff 3:
E---------------------------------------------------------------------------|
B---------------------------------------------------------------------------|
G---------------------------------------------------------------------------|
D---------------------------------------------------------------------------|
A-4444444-7777777-99999999-121212-111111-77--4444444-7777777-999999-12-11-7-|
E-2222222-5555555-77777777-------------------2222222-5555555-777777---------|

Riff 2

Acoustic Riff: Guitar 1
E--------------0--------------0--------------------------------------------------0--------------0----------------------|
B--------------------------------------------6-5-3-6-------6-3-5-3-----------------------------------------------------|
G-1-2-4--1-2-4---4-2-4--1-2-4---4-2-4--2-5-7---------4-5-7-----------------1-2-4---4-2-4--1-2-4---4-2-4--77-66-44-5-3--|
D----------------------------------------------------------------------------------------------------------------------|
A----------------------------------------------------------------------------------------------------------------------|
E-----------------------------------------------------------------  x's 5----------------------------------------------|

E--------------------------------------|
B--------------------------------------|
G--------------------------------------|
D-4-44----7-77----4-44----77-99--------|
A-2-22-00-5-55-00-2-22-00-55-77--------|
E------------------------------  x's 2-|
pm     ..      ..      ..

Guitar 2: Acoustic riff
E-------------------------------------------|
B-------------------------------------------|
G-------------------------------------------|
D-------------------------------------------|
A-------------4----------4-4-4-4-4--0-0-0-0-|
E--000000000--2 (panner)-2-2-2-2-2--0-0-0-0-|
pm .........                        . . . .

Riff 2: Part A x's 6

End:
E-------|
B-------|
G-------|
D-------|
A-0-0-0-|
E-0-0-0-|
pm. . .
Добавлено: 11.05.2012
Другие материалы по этой песне:

Страница создана 24.02.2012
http://primanota.ru/fall-out-boy/homesick-at-space-camp-chords.htm
Привет, Гость.
Предлагаем пройти революционный курс по гитаре.
Подарок от PrimaNota.Ru, забирай!