PrimaNota.ru - самый крупный в мире бесплатный архив песенных текстов, аккордов, табулатур и нот


Fall Out Boy - Headfirst Slide Into Coopestown On A Bad Bet - текст песни, бас-таба, видео

Регистрация Запомнить меня
Войти через:  Facebook Google Twitter Vk Yandex Mail.ru

Fall Out Boy - Headfirst Slide Into Coopestown On A Bad Bet - текст песни, бас-таба, видео

Печатать
Просмотров: 242
-------------------------------------------------------------------------------
	   Headfirst Slide Into Cooperstown On A Bad Bet - Fall Out Boy
-------------------------------------------------------------------------------

Tabbed By: Valerie Louie
e-mail: queefist@yahoo.com
Tuning: Drop D

Verse "mr. Sandman showing his demon" 
G|----------------------------------------|
D|----------------------------------------|
A|1-1-0-3-5-53-5-3h5--1-1-0-3-5-------5p3-|
D|------------------------------0-00------| x2

"Head like a steal trap wish"
G|-------------------------------------|
D|-------------------------------------|
A|1-1-0-3-5-53-5-3h5--1-1-0-3-5--------|
D|------------------------------0-00---|

"I just don't wanna be a footnote"
G|----------------------------------------|
D|----------------------------------------|
A|1-1-0-3-5-53-5-3h5--1-1-0-3-5-------5p3-|
D|------------------------------0-00------| x2

Chorus "Does your husband know the way.."
G|----------------------------------------|
D|----------------------------------------|
A|1-1-0-3-5-53-5-3h5--1-1-0-3-5-------5p3-|
D|------------------------------0-00------|

G|----------------------------------|
D|----------------------------------|
A|1-1-0-3-5-53-5-3h5--1-1-0-3-5-----|
D|------------------------------0-00|

pre-verse "The last time you came through.."
G|------------------------------------|
D|------------------------------------|
A|------------------------------------|
D|00000000-22222222-33333333-55555577-|x2

G|----------------------------------------|
D|----------------------------------------|
A|1-1-0-3-5-53-5-3h5--1-1-0-3-5-------5p3-|
D|------------------------------0-00------| 

Verse "Tempest in a teapcup"
G|----------------------------------|
D|----------------------------------|
A|1-1-0-3-5----1-1-0-3-5--------5p3-|
D|-----------------------0-0-0------|

"it's a sign....."
G|----------------------------------------|
D|----------------------------------------|
A|1-1-0-3-5-53-5-3h5--1-1-0-3-5-------5p3-|
D|------------------------------0-00------| 

Chorus "Does your husband know..."
G|---------------------------------------|
D|---------------------------------------|
A|1-1-0-3-5-53-5-3h5--1-1-0-3-5------5p3-|
D|------------------------------0-0------|x4

"The last time you came through.."
G|------------------------------------|
D|------------------------------------|
A|------------------------------------|
D|00000000-22222222-33333333-55555577-|x2

"Whoaaaaa does your husband know?
G|----------------------------------------|
D|----------------------------------------|
A|1-1-0-3-5-53-5-3h5--1-1-0-3-5-------5p3-|
D|------------------------------0-00------| x3


outro "but i will never end up like him..."
G|-------------------------------------|
D|-------------------------------------|
A|----------------------------11111111-|
D|33333333-22222222-000000000----------| x3

"the last time you came through, oh darling i know what you're goin through"
G|------------------------------|
D|------------------------------|
A|----------------------------1~|
D|33333333-22222222-000000000---|

Добавлено: 22.07.2012
Другие материалы по этой песне:

Страница создана 22.06.2012
http://primanota.ru/fall-out-boy/headfirst-slide-into-coopestown-on-a-bad-bet-chords.htm
Привет, Гость.
Предлагаем пройти революционный курс по гитаре.
Подарок от PrimaNota.Ru, забирай!