PrimaNota.ru - самый крупный в мире бесплатный архив песенных текстов, аккордов, табулатур и нот


Fall Out Boy - Folie A Deux - таба, видео

Регистрация Запомнить меня
Войти через:  Facebook Google Twitter Vk Yandex Mail.ru

Fall Out Boy - Folie A Deux - таба, видео

Печатать
Просмотров: 205
Tabbers:

Doobidoo
DarkLithium
hockeyamh
Poppeseed
Kevin Heiland
falloutboy96
gshady232545

-------------------------------------------------------------------------------
		        Disloyal Order Of Water Buffaloes  - Fall Out Boy
-------------------------------------------------------------------------------
Intro-

Church Organ- D A/C# Bm G
         A Bb Bm G D   Bm G D


GtrI
|--------------------------------------------------------|
|-7-7-7-7-7-7-7-7-7-7-5-5-5-7-7-7-7-7-7-7-7-7-7-7-5-5-5--|
|-7-7-7-7-7-7-7-7-7-7-7-7-7-7-7-7-7-7-7-7-7-7-7-7-7-7-7--|
|-x-x-x-x-x-x-x-x-x-x-x-x-x-x-x-x-x-x-x-x-x-x-x-x-x-x-x--|3x
|-5-5-5-5-5-5-5-5-5-5-5-5-5-5-5-5-5-5-5-5-5-5-5-5-5-5-5--|
|--------------------------------------------------------|
GtrII
|--------------------------------------------------------|
|--------------------------------------------------------|
|--------------------------------------------------------|
|-0~---7--5~------------0~---7--5~-----------------------|
|-0~---7--5~------------0~---7--5~-----------------------|
|-0~---7--5~------------0~---7--5~-----------------------|

Verse-
GtrI
|--------------------------------------------------------|
|-7-7-7-7-7-7-7-7-7-7-5-5-5-7-7-7-7-7-7-7-7-7-7-7-5-5-5--|
|-7-7-7-7-7-7-7-7-7-7-7-7-7-7-7-7-7-7-7-7-7-7-7-7-7-7-7--|
|-x-x-x-x-x-x-x-x-x-x-x-x-x-x-x-x-x-x-x-x-x-x-x-x-x-x-x--|2x
|-5-5-5-5-5-5-5-5-5-5-5-5-5-5-5-5-5-5-5-5-5-5-5-5-5-5-5--|
|--------------------------------------------------------|
GtrII
|--------------------------------------------------------|
|--------------------------------------------------------|
|--------------------------------------------------------|
|-0~---7--5~------------0~---7--5~-----------------------|
|-0~---7--5~------------0~---7--5~-----------------------|
|-0~---7--5~------------0~---7--5~-----------------------|

Refrain-

|------------------------------------------------------|
|------------------------------------------------------|
|------------------------------------------------------|
|----77----77----77-----77----77----77----77-----77----|
|-99----77----77-----55-----99---77----77-----55-------|
|-99----------77-----00-----99---------77-----00-------|
  **    **    **     **     **   **    **     **

|------------------------------------------------------|
|------------------------------------------------------|
|------------------------------------------------------|
|----77----77----77-----77----77----77-----------------|
|-99----77----77-----55-----99---77----77777777--------|
|-99----------77------------99---------77777777--------|
  **    **    **     **     **   **    ********

GtrII
|----------------------------------------------|
|----------------------------------------------|
|----------------------------------------------|
|-9999-2222-7777-0000--9999-2222-7777-0000-----|
|-9999-2222-7777-0000--9999-2222-7777-0000-----|
|-9999-2222-7777-0000--9999-2222-7777-0000-----|

|----------------------------------------------|
|----------------------------------------------|
|----------------------------------------------|
|-9999-2222-7777-0000--9999-2222-7777-7777-----|
|-9999-2222-7777-0000--9999-2222-7777-7777-----|
|-9999-2222-7777-0000--9999-2222-7777-7777-----|


Refrain2-


GtrI
|--------------------------------------------------------|-----------------------|
|--------------------------------------------------------|-77-777-777-777-555----|
|-----4~-----6~-----7~--9p7-9p7--9/11--9s--4~-6~-7~-6~---|-77-777-777-777-777----|
|-----5~-----7~-----9~-----------------------------------|-xx-xxx-xxx-xxx-xxx----|
|---5------7------9--------------------------------------|-55-555-555-555-555----|
|-5------7------9----------------------------------------|-----------------------|

GtrII not sure
|--------------------------------------------------------|
|--------------------------------------------------------|
|-----4~-----6~-----7-------7~-----4-----6~--------------|
|-----4~-----7~-----9~-----9-------4----7---9--7---5~----|
|---5---5--7---7---9--9---9------5-----7----9--7---5~----|
|-5------7-------9------9------5------7-----9--7---5~----|


Chorus-
|------------------------------------------------------------------|
|------------------------------------------------------------------|
|------------------------------------------------------------------|
|-0-0-0-0-5-5-5-5-9-9-9-9-7-7-7-7--0-0-0-0-5-5-5-5-9-9-9-9-7-7-7-7-|
|-0-0-0-0-5-5-5-5-9-9-9-9-7-7-7-7--0-0-0-0-5-5-5-5-9-9-9-9-7-7-7-7-|
|-0-0-0-0-5-5-5-5-9-9-9-9-7-7-7-7--0-0-0-0-5-5-5-5-9-9-9-9-7-7-7-7-|

|-------------------------------------------------------------------|
|-------------------------------------------------------------------|
|-------------------------------------------------------------------|
|-0-0-0-0-5-5-5-5-9-9-9-9-7-7-7-7--4-4-4-4-5-5-5-5-9-9-9-9-7-7-7-7--|
|-0-0-0-0-5-5-5-5-9-9-9-9-7-7-7-7--4-4-4-4-5-5-5-5-9-9-9-9-7-7-7-7--|
|-0-0-0-0-5-5-5-5-9-9-9-9-7-7-7-7--4-4-4-4-5-5-5-5-9-9-9-9-7-7-7-7--|

Gtr?not sure

|----------------------------------------------------|
|-7-7-7-8-8-5-5-7-7-5-5--7-7-7-8-8-5-5-7-7-5-5-------|
|----------------------------------------------------|
|----------------------------------------------------|
|----------------------------------------------------|
|----------------------------------------------------|

then

GtrI
|--------------------------------------------------------|
|-7-7-7-7-7-7-7-7-7-7-5-5-5-7-7-7-7-7-7-7-7-7-7-7-5-5-5--|
|-7-7-7-7-7-7-7-7-7-7-7-7-7-7-7-7-7-7-7-7-7-7-7-7-7-7-7--|
|-x-x-x-x-x-x-x-x-x-x-x-x-x-x-x-x-x-x-x-x-x-x-x-x-x-x-x--|2x
|-5-5-5-5-5-5-5-5-5-5-5-5-5-5-5-5-5-5-5-5-5-5-5-5-5-5-5--|
|--------------------------------------------------------|
GtrII
|--------------------------------------------------------|
|--------------------------------------------------------|
|--------------------------------------------------------|
|-0~---7--5~------------0~---7--5~-----------------------|
|-0~---7--5~------------0~---7--5~-----------------------|
|-0~---7--5~------------0~---7--5~-----------------------|

Do verse- Refrain

end of refrain2
|------------------------------------|
|------------------------------------|
|------------------------------------|
|-5-5-5-5-7-7-7-7-9-9-9-1111-12-12---|
|-5-5-5-5-7-7-7-7-9-9-9-1111-12-12---|
|-5-5-5-5-7-7-7-7-9-9-9-1111-12-12---|

Do Chorus

3:13
GtrI
|--------------------------------------------------------|
|-7-7-7-7-7-7-7-7-7-7-5-5-5-7-7-7-7-7-7-7-7-7-7-7-5-5-5--|
|-7-7-7-7-7-7-7-7-7-7-7-7-7-7-7-7-7-7-7-7-7-7-7-7-7-7-7--|4x
|-x-x-x-x-x-x-x-x-x-x-x-x-x-x-x-x-x-x-x-x-x-x-x-x-x-x-x--|
|-5-5-5-5-5-5-5-5-5-5-5-5-5-5-5-5-5-5-5-5-5-5-5-5-5-5-5--|
|--------------------------------------------------------|

GtrII
|--------------------------------------------------------|
|--------------------------------------------------------|
|--------------------------------------------------------|4x
|-0~---------------------0~------------------------------|
|-0~---------------------0~------------------------------|
|-0~---------------------0~------------------------------|


Do chorus-
end with
|----------------------------------|
|----------------------------------|
|----------------------------------|
|-4-4-4-4-5-5-5-5-9-9-9-9-7-7-7-7--|
|-4-4-4-4-5-5-5-5-9-9-9-9-7-7-7-7--|
|-4-4-4-4-5-5-5-5-9-9-9-9-7-7-7-7--|


end with
GtrI
|--------------------------------------------------------|
|-7-7-7-7-7-7-7-7-7-7-5-5-5-7-7-7-7-7-7-7-7-7-7-7-5-5-5--|
|-7-7-7-7-7-7-7-7-7-7-7-7-7-7-7-7-7-7-7-7-7-7-7-7-7-7-7--|
|-x-x-x-x-x-x-x-x-x-x-x-x-x-x-x-x-x-x-x-x-x-x-x-x-x-x-x--|
|-5-5-5-5-5-5-5-5-5-5-5-5-5-5-5-5-5-5-5-5-5-5-5-5-5-5-5--|
|--------------------------------------------------------|

GtrII
|--------------------------------------------------------|
|--------------------------------------------------------|
|--------------------------------------------------------|
|-0~---------------------0~------------------------------|
|-0~---------------------0~------------------------------|
|-0~---------------------0~------------------------------|


-------------------------------------------------------------------------------
		        I Don't Care - Fall Out Boy
-------------------------------------------------------------------------------
Tabbed by: DarkLithium
Email: simpson_dude123@hotmail.co.uk

Tuning:Standard (E A D G B e)

Intro
e|----------------------------------------------------|
B|----------------------------------------------------|
G|----------------------------------------------------|
D|------4-x-4-x-4------4-----4-----4-----4-----4------|    X4
A|-----------------(0)-0-(0)-2-(0)-0-(0)-2-(0)-0------|
E|--0-2-----------------------------------------------|

Verse
e|----------------------------------------------------|
B|----------------------------------------------------|
G|----------------------------------------------------|
D|------4-x-4-x-4------4-----4-----4-----4-----4------|    X2
A|-----------------(0)-0-(0)-2-(0)-0-(0)-2-(0)-0------|
E|--0-2-----------------------------------------------|

e|----------------------------------|
B|----------------------------------|
G|----------------------------------|
D|----------------------------------|
A|-5555555-444444-222222-2h4-2-0----|
E|----------------------------------|

e|----------------------------------------------------|
B|----------------------------------------------------|
G|----------------------------------------------------|
D|-----4-x-4-x-4-------4-----4-----4-----4-----4------|    X3
A|-----------------(0)-0-(0)-2-(0)-0-(0)-2-(0)-0------|
E|--0-2-----------------------------------------------|

e|----------------------------------|
B|----------------------------------|
G|----------------------------------|
D|----------------------------------|
A|-5555555-444444-222222-2h4-2-0----|
E|----------------------------------|

e|----------------------------------------------------|
B|----------------------------------------------------|
G|----------------------------------------------------|
D|------4-x-4-x-4------4-----4-----4-----4-----4------|
A|-----------------(0)-0-(0)-2-(0)-0-(0)-2-(0)-0------|
E|--0-2-----------------------------------------------|

Chorus
e|---------------------------------------------------------------------------------------|
B|---------------------------------------------------------------------------------------|
G|-----------------------------7-77-77-77-7--4-44-44-44-4--7-77-77-77-7--4-44-44-44-4----|
D|-4-44-44-44-4--7-77-77-77-7--7-77-77-77-7--4-44-44-44-4--7-77-77-77-7--4-44-44-44-4----|
A|-4-44-44-44-4--7-77-77-77-7--5-55-55-55-5--2-22-22-22-2--5-55-55-55-5--2-22-22-22-2----|
E|-2-22-22-22-2--5-55-55-55-5------------------------------------------------------------|

e|----------------------------------------------------|
B|----------------------------------------------------|
G|----------------------------------------------------|
D|------4-x-4-x-4------4-----4-----4-----4-----4------|
A|-----------------(0)-0-(0)-2-(0)-0-(0)-2-(0)-0------|
E|--0-2-----------------------------------------------|

e|---------------------------------------------------------------------------------------|
B|---------------------------------------------------------------------------------------|
G|-----------------------------7-77-77-77-7--4-44-44-44-4--7-77-77-77-7--4-44-44-44-4----|
D|-4-44-44-44-4--7-77-77-77-7--7-77-77-77-7--4-44-44-44-4--7-77-77-77-7--4-44-44-44-4----|
A|-4-44-44-44-4--7-77-77-77-7--5-55-55-55-5--2-22-22-22-2--5-55-55-55-5--2-22-22-22-2----|
E|-2-22-22-22-2--5-55-55-55-5------------------------------------------------------------|

e|----------------------------------------------------|
B|----------------------------------------------------|
G|----------------------------------------------------|
D|------4-x-4-x-4------4-----4-----4-----4-----4------|
A|-----------------(0)-0-(0)-2-(0)-0-(0)-2-(0)-0------|
E|--0-2-----------------------------------------------|

Fill
e|----------------------------------------------------|
B|----------------------------------------------------|
G|----------------------------------------------------|
D|-----4-x-4-x-4-------4-----4-----4-----4------------|
A|-----------------(0)-0-(0)-2-(0)-0-(0)-2------------|
E|--0-2-----------------------------------------------|

REPEAT VERSE, CHORUS & FILL

Bridge
e|----------------------------------------------------|
B|----------------------------------------------------|
G|----------------------------------------------------|
D|-------4--4--4-------4-----4-----4-----4------------|   X4
A|-----------------(0)-0-(0)-2-(0)-0-(0)-2------------|
E|--0-2-----------------------------------------------|
  PM..................................................

e|----------------------------------------------------|
B|----------------------------------------------------|
G|----------------------------------------------------|
D|-----4-x-4-x-4-------4-----4-----4-----4------------|   X7
A|-----------------(0)-0-(0)-2-(0)-0-(0)-2------------|
E|--0-2-----------------------------------------------|


e|--------------------|
B|--------------------|
G|--------------------|
D|--4--4--4-4-4-4-----|
A|--4--4--4-4-4-4-----|
E|--2--2--2-2-2-2-----|

GTR 1 -- REPEAT CHORUS X2 But With Slight differences
e|----------------------------------------------------------------------|
B|----------------------------------------------------------------------|
G|----------------7--7--7--7--4--4--4--4--7-77-77-77-7--4-44-44-44-4----|
D|-4---4---7---7--7--7--7--7--4--4--4--4--7-77-77-77-7--4-44-44-44-4----|
A|-4---4---7---7--5--5--5--5--2--2--2--2--5-55-55-55-5--2-22-22-22-2----|
E|-2---2---5---5--------------------------------------------------------|
            ^^^^^^^^^^^                  ^
    Slightly Different Stumming          Solo Comes In Here
      Pattern First Time When
          This is Played

GTR 2 -- Solo (Played Behind Chorus)                    TP.....
e|-------------------------------------------------------x---------|
B|-12^(13)---12---10--12^(13)-12-10-12-10--12^(13)-12-10--------12-|
G|-----------------------------------------------------------------|
D|-----------------------------------------------------------------|
A|-----------------------------------------------------------------|
E|-----------------------------------------------------------------|

e|---------------------12h13h14---14---14---14141214-1212141214----|
B|-----------12h13h14----------------------------------------------|
G|-11h13h14--------------------------------------------------------|
D|-----------------------------------------------------------------|
A|-----------------------------------------------------------------|
E|-----------------------------------------------------------------|

e|-1212141214----------------14141214-1212141214-1212141214----------------|
B|------------10-10h12p10-10--------------------------------10-10h12p10----|
G|-------------------------------------------------------------------------|
D|-------------------------------------------------------------------------|
A|-------------------------------------------------------------------------|
E|-------------------------------------------------------------------------|

e|-------------------------------14-16-|
B|-10-10h12p10--12-12^13-10------------|
G|--------------------------11---------|
D|-------------------------------------|
A|-------------------------------------|
E|-------------------------------------|

e|-17-1717-1717-1717-1717-1717-1717-1717-1717-17-17171717171717171717171717171717171717--17\----|
B|----------------------------------------------------------------------------------------------|
G|----------------------------------------------------------------------------------------------|
D|----------------------------------------------------------------------------------------------|
A|----------------------------------------------------------------------------------------------|
E|----------------------------------------------------------------------------------------------|

| ^( ) bend note up to..
| PM   palm mute
| TP   tremelo picking
| /    slide up
| \    slide down
| h    hammer-on
| p    pull-off
| ~    vibrato
| +  harmonic
| x  Mute note
===============================================================================


-------------------------------------------------------------------------------
		        Shes My Winona - Fall Out Boy
-------------------------------------------------------------------------------

Intro-
GtrI

|-2-2-22-2-2-2-22--2-2-2-22-2-2-2-22--|-2-2-22-2-2-2-22--2-2-2-22-2-2-2-22--|
|-3-3-33-3-3-3-33--3-3-3-33-3-3-3-33--|-3-3-33-3-3-3-33--3-3-3-33-3-3-3-33--|
|-4-4-22-0-0-0-00--x-x-x-xx-x-x-x-xx--|-4-4-22-0-0-0-00--x-x-x-xx-x-x-x-xx--|
|------------------4-4-4-44-4-4-4-44--|------------------4-4-4-44-4-4-4-44--|
|-------------------------------------|-------------------------------------|
|-------------------------------------|-------------------------------------|

GtrII
|-------------------------------------|----------------------------|
|-------------------------------------|----------------------------|
|-------------------------------------|---4--44--4--44---4--4-4-4--|
|-------------------------------------|----------------------------|
|-------------------------------------|---2--22--2--22---2--2-2-2--|
|-------------------------------------|----------------------------|


Then-
GtrI
|--------------------------------------------------------------------------|
|--------------------------------------------------------------------------|
|--------------------------------------------------------------------------|
|-5555-4444-2222-7777-0000000000000000--9999-4444-2222-7777-00000000000000-|
|-5555-4444-2222-7777-0000000000000000--9999-4444-2222-7777-00000000000000-|
|-5555-4444-2222-7777-0000000000000000--9999-4444-2222-7777-00000000000000-|

GtrII

|------------------------------------------------------------------------|
|------------------------------------------------------------------------|
|-14141414-14141414-12121212-12121212--11111111111111111111111111111111--|
|------------------------------------------------------------------------|
|-12121212-12121212-10101010-10101010--9-9-9-9-9-9-9-9-9-9-9-9-9-9-9-9---|
|------------------------------------------------------------------------|


|------------------------------------------------------------------------|
|------------------------------------------------------------------------|
|-11111111-9-9-9-9--11111111-11111212--11111111111111111111111111111111--|
|------------------------------------------------------------------------|
|-9-9-9-9--7-7-7-7--9-9-9-9--9-9-1010--9-9-9-9-9-9-9-9-9-9-9-9-9-9-9-9---|
|------------------------------------------------------------------------|
Verse-


GtrI do 2x


|-2-2-22-2-2-2-22--2-2-2-22-2-2-2-22--|-2-2-22-2-2-2-22--2-2-2-22-2-2-2-22--|
|-3-3-33-3-3-3-33--3-3-3-33-3-3-3-33--|-3-3-33-3-3-3-33--3-3-3-33-3-3-3-33--|
|-4-4-22-0-0-0-00--x-x-x-xx-x-x-x-xx--|-4-4-22-0-0-0-00--x-x-x-xx-x-x-x-xx--|
|------------------4-4-4-44-4-4-4-44--|------------------4-4-4-44-4-4-4-44--|
|-------------------------------------|-------------------------------------|
|-------------------------------------|-------------------------------------|

GtrII@0:43
|-------------------------------------|-------------------------------------|
|-------------------------------------|-------------------------------------|
|-------------------------------------|-------------------------------------|
|-----------------------------------7-|------------------------------xx-xx--|
|-2-2------------55-5-55-55-5-55-7h9--|-2-2------------55-5-55-55-5--xx-xx--|
|----44-4-2-2-77----------------------|-----44-4-2-2-77--------------xx-xx--|


Chorus-

GtrI
|--------------------------------------------------------------------------|
|--------------------------------------------------------------------------|
|--------------------------------------------------------------------------|
|-5555-4444-2222-7777-0000000000000000--9999-4444-2222-7777-00000000000000-|
|-5555-4444-2222-7777-0000000000000000--9999-4444-2222-7777-00000000000000-|
|-5555-4444-2222-7777-0000000000000000--9999-4444-2222-7777-00000000000000-|


GtrII

|------------------------------------------------------------------------|
|------------------------------------------------------------------------|
|-14141414-14141414-12121212-12121212--11111111111111111111111111111111--|
|------------------------------------------------------------------------|
|-12121212-12121212-10101010-10101010--9-9-9-9-9-9-9-9-9-9-9-9-9-9-9-9---|
|------------------------------------------------------------------------|


|------------------------------------------------------------------------|
|------------------------------------------------------------------------|
|-11111111-9-9-9-9--11111111-11111212--11111111111111111111111111111111--|
|------------------------------------------------------------------------|
|-9-9-9-9--7-7-7-7--9-9-9-9--9-9-1010--9-9-9-9-9-9-9-9-9-9-9-9-9-9-9-9---|
|------------------------------------------------------------------------|

GtrI
|-------------------------------------------------------------|
|-------------------------------------------------------------|
|-------------------------------------------------------------|
|-22-9999-4444-22222222-9999-4444-2222-7777-0000000000000000--|
|-22-9999-4444-22222222-9999-4444-2222-7777-0000000000000000--|
|-22-9999-4444-22222222-9999-4444-2222-7777-0000000000000000--|
  **


GtrII
|------------------------------------------------------------------------------------|
|------------------------------------------------------------------------------------|
|-xx-11111111-9999-77777777-11111111-9999-77777777-11111111-12121212-111111111111111-|
|-xx---------------------------------------------------------------------------------|
|-xx-9-9-9-9--7777-55555555-9-9-9-9--7777-55555555-9-9-9-9--10101010-9-9-9-9-9-9-9-9-|
|-xx---------------------------------------------------------------------------------|

GtrI

|------------------------|     |---------------|
|------------------------|     |---------------|
|------------------------|     |-7-7-77-7-77~--|
|-9999-4444-2222-7777-0~-|     |-7-7-77-7-77~--|
|-9999-4444-2222-7777-0~-|     |-5-5-55-5-55~--|
|-9999-4444-2222-7777-0~-|     |---------------|

GtrII
|-----------------------------|
|-----------------------------|
|-11111111-9999-7777-6666-7~--|
|-----------------------------|
|-9-9-9-9--7777-5555-4444-5~--|
|-----------------------------|

Then-
GtrI
|--------------------------------------------------------------------------|
|--------------------------------------------------------------------------|
|--------------------------------------------------------------------------|
|-5555-4444-2222-7777-0000000000000000--9999-4444-2222-7777-00000000000000-|
|-5555-4444-2222-7777-0000000000000000--9999-4444-2222-7777-00000000000000-|
|-5555-4444-2222-7777-0000000000000000--9999-4444-2222-7777-00000000000000-|

GtrII

|-----------------------------------------------------------|
|-----------------------------------------------------------|
|-11111111-9999-7777-9999-11111111111111111111111111111111--|
|-----------------------------------------------------------|
|-9-9-9-9--7777-5555-7777-9-9-9-9-9-9-9-9-9-9-9-9-9-9-9-9---|
|-----------------------------------------------------------|

|-----------------------------------------------------------|
|-----------------------------------------------------------|
|-7777-9999-7777-11/1212--11111111111111111111111111111111--|
|-----------------------------------------------------------|
|-5555-7777-5555-9-/1010--9-9-9-9-9-9-9-9-9-9-9-9-9-9-9-9---|
|-----------------------------------------------------------|

Do verse-

GtrII
|-------------------------------------|-------------------------------------|
|-------------------------------------|-------------------------------------|
|-------------------------------------|-------------------------------------|
|-----------------------------------7-|------------------------------xx-xx--|
|-2-2------------55-5-55-55-5-55-7h9--|-2-2--------------------------xx-xx--|
|----44-4-2-2-77----------------------|-----44-4-2-2-77--------------xx-xx--|


Do chorus-

then Bass only
then Patrick solo vocals...
Clean Gtr
|--------------------------------------------------------------------------|
|--------------------------------------------------------------------------|
|---------------------7777777777777777----------------------77777777777777-|
|-5555-4444-2222-7777-7777777777777777--9999-4444-2222-7777-77777777777777-|
|-5555-4444-2222-7777-0000000000000000--9999-4444-2222-7777-00000000000000-|
|-5555-4444-2222-7777-0000000000000000--9999-4444-2222-7777-00000000000000-|


then GtrII enters
|--------------------------------------------------------------------------|
|--------------------------------------------------------------------------|
|--------------------------------------------------------------------7-----|
|--------------------------------------9-----------2--------0--------x/----|
|--------------------------------------9-----------2--------0--------5/----|
|--------------------------------------9-----------2--------0--------0/----|


then

GtrI
|-------------------------------------------------------------|
|-------------------------------------------------------------|
|-------------------------------------------------------------|
|----9999-4444-22222222-9999-4444-2222-7777-0000000000000000--|
|----9999-4444-22222222-9999-4444-2222-7777-0000000000000000--|
|----9999-4444-22222222-9999-4444-2222-7777-0000000000000000--|

GtrII
|------------------------------------------------------------------------------------|
|------------------------------------------------------------------------------------|
|-xx-11111111-9999-77777777-11111111-9999-77777777-11111111-12121212-111111111111111-|
|-xx---------------------------------------------------------------------------------|
|-xx-9-9-9-9--7777-55555555-9-9-9-9--7777-55555555-9-9-9-9--10101010-9-9-9-9-9-9-9-9-|
|-xx---------------------------------------------------------------------------------|

then last


GtrI
|------------------------------------------------------------------------|
|------------------------------------------------------------------------|
|------------------------------------------------------------------------|
|--11-11-11-11-6666-44444444-11-11-11-11-6666-4444-9999-2222222222222222-|
|--11-11-11-11-6666-44444444-11-11-11-11-6666-4444-9999-2222222222222222-|
|--11-11-11-11-6666-44444444-11-11-11-11-6666-4444-9999-2222222222222222-|

GtrII
|-------------------------------------------------------------------------------------------|
|-------------------------------------------------------------------------------------------|
|-xx-13131313-11111111-99999999-13131313-11111111-99999999-13131313-14141414-13131313131313-|
|-xx----------------------------------------------------------------------------------------|
|-xx-11111111-9-9-9-9--77777777-11111111-9-9-9-9--77777777-11111111-12121212-11111111111111-|
|-xx----------------------------------------------------------------------------------------|

GtrI
|----------------------------0-0-0-0-0-0-0-0-0-0-0-0-0-0-0-0-|
|----------------------------0-0-0-0-0-0-0-0-0-0-0-0-0-0-0-0-|
|------------------------------------------------------------|
|-11-11-11-11-6666-4444-9999-2~-------2~----------2~---------|
|-11-11-11-11-6666-4444-9999-2~-------2~----------2~---------|
|-11-11-11-11-6666-4444-9999-2~-------2~----------2~---------|


GtrII
|--------------------------------------------|
|--------------------------------------------|
|-13131313-11111111-9999--8888--9~---9~---9~-|
|--------------------------------------------|
|-11111111-9-9-9-9--7777--6666--7~---7~---7~-|
|--------------------------------------------|

-------------------------------------------------------------------------------
	Headfirst Slide Into Cooperstown On A Bad Bet - Fall Out Boy
-------------------------------------------------------------------------------
Tabbed by: hockeyamh
Email: helwiga@fsuimail.ferris.edu

Tuning: Drop D

Downloaded this song from iTunes a while ago, and I absolutely love it. So, here's a
accurate
tab. Some parts are still missing, but this is the majority of it. If you have anything
add, email me
or just leave a comment. (Listen to the song for the strumming pattern)

Verse/Chorus: 0:08   6x
e|---------------------------------------------------------------------------|
B|---------------------------------------------------------------------------|
G|---------------------------------------------------------------------------|
D|-----8--8--7---10--12---12--10--12--10--------8--8--7---10--12---0--0--0-12|
A|-----8--8--7---10--12---12--10--12--10--------8--8--7---10--12---0--0--0-12|
D|-----8--8--7---10--12---12--10--12--10--------8--8--7---10--12---0--0--0-12|

It repeats this progression for a while, up until the post chorus, or
“I will never end up like him, behind my back I already am...”
This is all piano, but here's a guitar version.

Post Chorus: 0:56    2x
e|---------------------------------------------------------------------------|
B|---------------------------------------------------------------------------|
G|--------10--------------9-------------7------------5-----------------------|
D|--------10-------------10-------------7------------5-----------------------|
A|---------8--------------7-------------5------------3-----------------------|
D|---------------------------------------------------------------------------|

Then, once it gets to
“The last time you came through, Oh darling I know what your going through”
The post chorus continues again with:

1:12    2x
e|---------------------------------------------------------------------------|
B|---------------------------------------------------------------------------|
G|---------------------------------------------------------------------------|
D|--00000000-22222222-33333333-55555555--------------------------------------|
A|--00000000-22222222-33333333-55555555--------------------------------------|
D|--00000000-22222222-33333333-55555555--------------------------------------|
    xxxxxxxx xxxxxxxx xxxxxxxx xxxxxxxx


Verse/Chorus: 1:28   8x
e|---------------------------------------------------------------------------|
B|---------------------------------------------------------------------------|
G|---------------------------------------------------------------------------|
D|-----8--8--7---10--12---12--10--12--10--------8--8--7---10--12---0--0--0-12|
A|-----8--8--7---10--12---12--10--12--10--------8--8--7---10--12---0--0--0-12|
D|-----8--8--7---10--12---12--10--12--10--------8--8--7---10--12---0--0--0-12|

Post Chorus(Piano): 2:24    2x
e|---------------------------------------------------------------------------|
B|---------------------------------------------------------------------------|
G|--------10--------------9-------------7------------5-----------------------|
D|--------10-------------10-------------7------------5-----------------------|
A|---------8--------------7-------------5------------3-----------------------|
D|---------------------------------------------------------------------------|

“The last time you came through...” 2:40    2x
e|---------------------------------------------------------------------------|
B|---------------------------------------------------------------------------|
G|---------------------------------------------------------------------------|
D|--00000000-22222222-33333333-55555555--------------------------------------|
A|--00000000-22222222-33333333-55555555--------------------------------------|
D|--00000000-22222222-33333333-55555555--------------------------------------|
    xxxxxxxx xxxxxxxx xxxxxxxx xxxxxxxx

“Does your husband know? Does your husband know...” 2:56    2x
e|---------------------------------------------------------------------------|
B|---------------------------------------------------------------------------|
G|---------------------------------------------------------------------------|
D|-----8--8--7---10--12---12--10--12--10--------8--8--7---10--12---0--0--0-12|
A|-----8--8--7---10--12---12--10--12--10--------8--8--7---10--12---0--0--0-12|
D|-----8--8--7---10--12---12--10--12--10--------8--8--7---10--12---0--0--0-12|

Outro: 3:12  4x

e|---------------------------------------------------------------------------|
B|---------------------------------------------------------------------------|
G|--------10--------------9-------------7------------5-----------------------|
D|--------10-------------10-------------7------------5-----------------------|
A|---------8--------------7-------------5------------3-----------------------|
D|---------------------------------------------------------------------------|

End On
e|---------------------------------------------------------------------------|
B|---------------------------------------------------------------------------|
G|---------------------------------------------------------------------------|
D|------3--------------------------------------------------------------------|
A|------3--------------------------------------------------------------------|
D|------3--------------------------------------------------------------------|
 There's also an awesome solo in the 2nd half of the outro, but I've yet to figure out
exact tabs
for it yet. But like I said earlier, if you feel like there's anything missing, just
me or leave a
comment. Enjoy!

| /  slide up
| \  slide down
| h  hammer-on
| p  pull-off
| ~  vibrato
| +  harmonic
| x  Mute note
===============================================================================

-------------------------------------------------------------------------------
		      The Shipped Gold Standard Tab - Fall Out Boy
-------------------------------------------------------------------------------
Tabbed by Poppeseed ( www.myspace.com/couragesuite )

Tuned in Drop D

INTRO
Guitar2
e|------------------------------------------------------------------|
B|------------------------------------------------------------------|
G|---------6---------------8---------------11------11------119-8----|
D|-4-4-4-4-----4---6-6-6-6-----6------------------------------------|
A|---------------------------------7-7-7-7-----7-------7------------|
D|------------------------------------------------------------------|

VERSE 1
Guitar1
e|------------------|
B|------------------|
G|------------------|
D|-6---6---6---62---| x10
A|-6---6---6---62---|
D|-6---6---6---62---|
   ^   ^   ^   ^~
Guitar2
REST x6
e|------------------|
B|------------------|
G|-4444444-444-444--|
D|-4444444-444-444--| x4
A|------------------|
D|------------------|

PRECHORUS
Guitar1 (soft)  Pt1                                 Pt2
e|---------------------------------|--------------------------------|
B|---------------------------------|--------------------------------|
G|---------------------------------|--------------------------------|
D|-4444444466666666222222222222----|-44444444666666662---------xxxx-|
A|-4444444466666666222222222222----|-44444444666666662---------xxxx-|
D|-4444444466666666222222222222----|-44444444666666662---------xxxx-|
                                                     ^
Guitar2
Part 1
e|------------------------------------------------------------------|
B|------------------------------------------------------------------|
G|-6-6-6-6-6-6-6-6-8-8-8-8-8-8-8-8---------11------11------119-8----|
D|-4-4-4-4-4-4-4-4-6-6-6-6-6-6-6-6-9-9-9-9-9-9-9-9-9-9-9-9----------|
A|---------------------------------7-7-7-7-7-7-7-7-7-7-7-7----------|
D|------------------------------------------------------------------|
Part 2
e|------------------------------------------------------------------|
B|------------------------------------(121212)(121212)(121212)------|
G|-6-6-6-6-6-6-6-6-8-8-8-8-8-8-8-8-----111111--111111--111111xxxxxx-|
D|-4-4-4-4-4-4-4-4-6-6-6-6-6-6-6-6-9---9-9-9---9-9-9---9-9-9-xxxxxx-|
A|---------------------------------7--------------------------------|
D|------------------------------------------------------------------|
                                   ^

CHORUS
Both Guitar
e|----------------------------------|----------------------------------|
B|----------------------------------|----------------------------------|
G|-----------------44444444---------|-----------------44444444444443---|
D|-66666666222222224444444444444444-|-666666662222222244444444444443---|
A|-66666666222222222222222244444444-|-666666662222222222222222222221---|
D|-6666666622222222--------44444444-|-6666666622222222-----------------|

e|----------------------------------|----------------------------------|
B|----------------------------------|----------------------------------|
G|-----------------44444444---------|-----------------4--4--4--4--43---|
D|-66666666222222224444444444444444-|-66666666222222224--4--4--4--43---|
A|-66666666222222222222222244444444-|-66666666222222222--2--2--2--21---|
D|-6666666622222222--------44444444-|-6666666622222222-----------------|

VERSE 2
Same as 1

PRECHORUS
Same

Chorus
Same

BRIDGE
Guitar1
e|------------------|
B|------------------|
G|------------------|
D|-6-xxx-xxx-xxxx2--| x4
A|-6-xxx-xxx-xxxx2--|
D|-6-xxx-xxx-xxxx2--|

Guitar2 +++ +++ ++++
e|--(777-777-7777)--|
B|---777-777-7777---|
G|---777-777-7777---|
D|-6-+++-+++-++++2--| x10
A|-6-------------2--|
D|-6-------------2--|

PRECHORUS
Guitar1
Prechorus Pt 1 x3 clean, Pt 2 clean, distorted scratches at end

Guitar2
Prechorus Pt1 x 3, Then
e|------------------------------------------------------------------|
B|------------------------------------(12)----(12)------------------|
G|-6-6-6-6-6-6-6-6-8-8-8-8-8-8-8-8-----11------11------------xxxxxx-|
D|-4-4-4-4-4-4-4-4-6-6-6-6-6-6-6-6-9---9-------9-------------xxxxxx-|
A|---------------------------------7--------------------------------|
D|------------------------------------------------------------------|
                                   ^
CHORUS
Same, but last phrase repeated at end

OUTRO
Guitar1
Verse x2

 / - slide up
 \ - slide down
 h - hammer-on
 p - pull-off
 . - palm-mute
 x - left hand mute
 ^ - accented stop
 + - harmonic
(5)- ghost note
 ~ - let it ring
 t - triplets

-------------------------------------------------------------------------------
			     (Coffee's For Closers) - Fall Out Boy
					       off
					  Folie a Deux
-------------------------------------------------------------------------------
Tabbed by: Kevin Heiland
Email: kevin.heiland@gmail.com
Tuning: Standard

There are parts where it's hard to tell whether or not octaves or power chords are being
so if you have thing that you

think should be changed, tell me why and I'll do it. Have fun with this one folks. Rate
comment!

Intro: Figure out strumming pattern, it's easy eigth notes.

e|-----------------------|
B|-----------------------|
G|-13-11-9---9--16--14---|
D|-x--x--x---x--x---x----|
A|-11-9--7---7--14--12---|
E|-----------------------|

Verse 1: "I, I, I can't explain a thing..."
e|------------------------------------------|
B|------------------------------------------|
G|--13--16----13-11-9-16-14-13-11-9---------|
D|--x---x-----x--x--x-x--x--x--x--x---------|
A|--11--14----11-9--7-14-12-11-9--7---------|
E|------------------------------------------|

Pre-Chorus: "And oh baby, when they made me..."

e|---------------------------------------------------------------------------|
B|---------------------------------------------------------------------------|
G|-2-222222-----------6-666666-4-444444-2-222222-----------9-9-8-8-6~--------|
D|-2-222222-4-444444--6-666666-4-444444-2-222222-4-444444--x-x-x-x-x---------|
A|-0-000000-4-444444--4-444444-2-222222-0-000000-4-444444--7-7-6-6-4~--------|
E|----------2-222222-----------------------------2-222222--------------------|

Breakdown: "Fly your cameras in the air..."

e|---------------------------|
B|---------------------------|
G|-------2~--4~--4-----------|
D|--2~---2~--4~--4-----------|
A|--2~---0~--2~--2-----------|
E|--0~-----------------------|

Chorus: "I will never believe in anything again..."

e|---------------------------------------------------------------------------|
B|---------------------------------------------------------------------------|
G|-66666666-22222222-9-99-8-88-6-66-4-44---2222222-44444444-66666666---------|
D|-66666666-22222222-9-99-8-88-6-66-4-44---2222222-44444444-66666666---------|
A|-44444444-00000000-7-77-6-66-4-44-2-22---0000000-22222222-44444444---------|
E|---------------------------------------------------------------------------|

Post Chorus: "Change will come, oh, change will come..."

e|------------------------------------------------|
B|------------------------------------------------|
G|--2--4--6---2--4--6--6-4-22222222-44444444------|
D|--2--4--6---2--4--6--6-4-22222222-44444444------|
A|--0--2--4---0--2--4--4-2-00000000-22222222------|
E|------------------------------------------------|

Intro x1
Verse x1
Pre-chorus x1
Breakdown x1
Chorus x1
Post Chorus x1

"We will never believe again..."

e|--------------------------------------------------|
B|--------------------------------------------------|
G|-2--------6--4---4-6-9--2--------6--4--4-6-9------|
D|-x--4--9--x--x---x-x-x--x--4--9--x--x--x-x-x------|
A|-0--x--x--4--2---2-4-7--0--x--x--4--2--2-4-7------|
E|----2--7-------------------2--7-------------------|

"I will never believe in anything again..."

e|--------------------------------------------------------------|
B|--------------------------------------------------------------|
G|---------6666666666666666-------------------------------------|
D|--2~-----6666666666666666-------------------------------------|
A|--2~-----4444444444444444-------------------------------------|
E|--0~-----........---------------------------------------------|

Post Chorus x1
Chorus x1
Post Chorus x1

"We will never believe again..."

e|--------------------------------------------------|
B|--------------------------------------------------|
G|-2--------6--4---4-6-9--2--------6--4--4-6-9------|
D|-x--4--9--x--x---x-x-x--x--4--9--x--x--x-x-x------|
A|-0--x--x--4--2---2-4-7--0--x--x--4--2--2-4-7------|
E|----2--7-------------------2--7-------------------|

Repeat until end.


| .  palm mute
| /  slide up
| \  slide down
| h  hammer-on
| p  pull-off
| ~  vibrato
| +  harmonic
| x  Mute note
===============================================================================

-------------------------------------------------------------------------------
		       What a Catch - Fall Out Boy
-------------------------------------------------------------------------------
tabbed by:falloutboy96

                         this is my new improved tab of what a catch donnie. and i wanna
thank u to tinseltown for not beig such an a**hole in his comment,cuz some people
way here you are


intro (keep picking until after patrick is done singing and until the bass enters)
e|----|
b|----|
g|-/7-|
d|----|
a|-/5-|
E|----|

verse 1
e|------------------6---------|
b|-----------2-4-6h8----------|
g|-/7~-6~-4~-2-4--------------|
d|---------------------7~76~~~|
a|----------------------------|
E|----------------------------|

pre-chorus
e|---------------------------------|
b|---------------------------------|
g|-11-13-9-------7-9~-11-9~--------|
d|------------7-9-----------7-6-5-4|
a|---------7h9--------------7-6-5-4|
E|--------------------------5-4-3-2|

chorus x2
e|---------------------------------------------|
b|---------------------------------------------|
g|---------------------------------------3---5~|
d|7-7-7-7-5-5-5-5-4-4-4-4-3-3----3~---3----5---|
a|7-7-7-7-5-5-5-5-4-4-4-4-3-3-3h5--3h5---------|
E|5-5-5-5-3-3-3-3-2-2-2-2-1-1------------------|

post chorus
e|--|
b|--|
g|2~|
d|2~|
a|0~|
E|--|

verse 2
e|----------------------|
b|----------13\5-3-2-22~|
g|----77~---------------|
d|7-9-------------------|
a|----------------------|
E|----------------------|

pre-chorus x1
chorus x1

bridge
for the first part just play the chorus...
then
e|-----------------------------------------------------------------------|
b|-----------------------------------------------------------------------|
g|6-6-6-6-9-9-9-9-10111111116-6-6-6-7-7-7-7-9-9-9-9-101111111112-12-12-12|
d|6-6-6-6-9-9-9-9-10111111116-6-6-6-7-7-7-7-9-9-9-9-101111111112-12-12-12|
a|4-4-4-4-7-7-7-7-8-9-9-9-9-4-4-4-4-5-5-5-5-7-7-7-7-8-9-9-9-9-10-10-10-10|
E|-----------------------------------------------------------------------|

then
e|----------------|
b|----------------|
g|1010101010101010|
d|1010101010101010|
a|8-8-8-8-8-8-8-8-|
E|----------------|

-------------------------------------------------------------------------------
		    27 - Fall Out Boy
-------------------------------------------------------------------------------

FOB-27
"If home is where the heart is
Then we're all just f@#ked"

Standard Tuning

Intro-
GtrI
|-------------------------------------------|
|-33-22-2--33-22-2----33-22-2--33-22-2------|
|-44-33-3--44-33-3----44-33-3--44-33-3------|
|-44-44-4--44-44-4----44-44-4--44-44-4------|
|-22-44-4--22-44-4----22-44-4--22-44-4------|
|----22-2-----22-2-------22-2-----22-2------|
GtrII
|---------------------2~--------------------|
|---------------------3~--------------------|
|---------------------4~--------------------|
|---------------------4~--------------------|
|---------------------2~--------------------|
|-------------------------------------------|

Verse-
GtrI

|--2-22-2--2--22-2--3-00-0-3--3-2-0---00-0-0-0-2-2-22-2--2-22-|
|--3-22-2--3--22-2--3-00-0-3--3-2-0---00-0-0-0-2-3-22-2--3-22-|
|--4-33-2--4--33-3--4-00-0-4--4-2-0---00-0-0-0-2-4-33-3--4-33-|
|--4-44-4--4--44-4--5-22-2-5--5-4-2---22-2-2-2-2-4-44-4--4-44-|2x
|--2-44-4--2--44-4--5-22-2-5--5-4-2---22-2-2-2-2-2-44-4--2-44-|
|----22-2-----22-2--3-00-0-3--3-2-0---00-0-0-0-0---22-2----22-|


GtrII

|-------------------------------------------------------------|
|-------------------------------------------------------------|
|--4-------4-------------------------------------4-------4----|
|--4-44-4--4--44-4--5-22-2-5--5-4-2---22-2-2-2-2-4-44-4--4-44-|2x
|--2-44-4--2--44-4--5-22-2-5--5-4-2---22-2-2-2-2-2-44-4--2-44-|
|----22-2-----22-2--3-00-0-3--3-2-0---00-0-0-0-0---22-2----22-|

Refrain-
GtrI
|---------------------------------------------------------------|
|---------------------------------------------------------------|
|-4-4-4-4-4-4-4-4-4-4-4-4-4-4-4-4-4-4-4-4-4-4-4-4-3-3-3-3-3-3-3-|
|-5-5-5-5-5-5-5-5-4-4-4-4-4-4-4-4-5-5-5-5-5-5-5-5-4-4-4-4-4-4-4-|
|-5-5-5-5-5-5-5-5-2-2-2-2-2-2-2-2-5-5-5-5-5-5-5-5-4-4-4-4-4-4-4-|
|-3-3-3-3-3-3-3-3-----------------3-3-3-3-3-3-3-3-2-2-2-2-2-2-2-|

Chorus-
GtrI
|---------------------------------------------------------------------|
|---------------------------------------------------------------------|
|-4-444---4-444-------------------------------------44444444----------|
|-4-444-4-4-444-7--5555555555555-4-2222222222222222-44444444-77777777-|
|-2-222-4-2-222-7--5555555555555-4-2222222222222222-22222222-77777777-|
|-------2-------5--3333333333333-2-0000000000000000----------55555555-|

|----------------------------------------------|
|----------------------------------------------|
|--7-777-6---7777777-222222222222-3333-4~------|
|--7-777-7---7777777-222222222222-3333-4~------|
|--5-555-0---5555555-000000000000-1111-2~------|
|----------------------------------------------|

GtrII

|---------------------------------------------------------------------|
|---------------------------------------------------------------------|
|-7-777-6-7-777-6-----------------------------------------------------|
|------------------5555555555555-4-2222222222222222-99999999-77777777-|
|-5-555-4-5-555-4--5555555555555-4-2222222222222222-99999999-77777777-|
|------------------3333333333333-2-0000000000000000-77777777-55555555-|

|---------------------------------------------------------|
|---------------------------------------------------------|
|-7-777-6-7-777-6-6666666666666-6~--7~--------------------|
|---------------------------------------------------------|
|-5-555-4-5-555-4-4444444444444-4~--5~--------------------|
|---------------------------------------------------------|

Do intro-
Do Verse-
Refrain-

ChorusII

GtrI
|---------------------------------------------------------------------|
|---------------------------------------------------------------------|
|-4-444---4-444-------------------------------------44444444----------|
|-4-444-4-4-444-7--5555555555555-4-2222222222222222-44444444-77777777-|
|-2-222-4-2-222-7--5555555555555-4-2222222222222222-22222222-77777777-|
|-------2-------5--3333333333333-2-0000000000000000----------55555555-|

|----------------------------------------------------|
|----------------------------------------------------|
|--7-777-6---7777777-222222222222-3333-4~-4~-4~-4~---|
|--7-777-7---7777777-222222222222-3333-4~-4~-4~-4~---|
|--5-555-0---5555555-000000000000-1111-2~-2~-2~-2~---|
|----------------------------------------------------|

GtrII

|---------------------------------------------------------------------|
|---------------------------------------------------------------------|
|-7-777-6-7-777-6-----------------------------------------------------|
|------------------5555555555555-4-2222222222222222-99999999-77777777-|
|-5-555-4-5-555-4--5555555555555-4-2222222222222222-99999999-77777777-|
|------------------3333333333333-2-0000000000000000-77777777-55555555-|

|---------------------------------------------------------|
|---------------------------------------------------------|
|-7-777-6-7-777-6-6666666666666-7~--7~-----5~-----5~------|
|---------------------------------------------------------|
|-5-555-4-5-555-4-4444444444444-5~--5~-----5~-----5~------|
|---------------------------------------------------------|

Presolo- Bm let ring

Solo-
GtrI
|-------------------------------------------------------------------|
|-----------------------------------------------------10-12------10-|
|-(4)-s-7-777---9---11---9-11-12---11-9-------------11--------11----|
|-------------9---9----9---------9------12-11--9------------9-------|
|------------------------------------------------12-----------------|
|-------------------------------------------------------------------|

|-------------------------------------------------------------------|
|-------------------------------------------------------------------|
|---11-9--7----------6-7---9-7b------7b--------7-9-7b--------7b-----|
|-9----------9-7---9-----------9--7-9---9--7-9--------9--7-9----9---|
|-------------------------------------------------------------------|
|-------------------------------------------------------------------|

|-------------------------------------------------|
|-(10)s12-12-12-12-0-7-0-14/15--0-17-0-19-0-22-0--|
|-------------------------------------------------|
|-------------------------------------------------|
|-------------------------------------------------|
|-------------------------------------------------|

|-------------------------------------------------------------------------|
|-17-17-15-17---17-15-17---17-15-1717^(19)--17-15-17--17-15-1717^(19)-----|
|-------------------------------------------------------------------------|
|-------------------------------------------------------------------------|
|-------------------------------------------------------------------------|
|-------------------------------------------------------------------------|

|----------------------------------------------------------|
|-17-15-17---17-15-17/15-1212--12-10-12--14/15--12-12~-----|
|----------------------------------------------------------|
|----------------------------------------------------------|
|----------------------------------------------------------|
|----------------------------------------------------------|

|---------------------------|
|-10h12-12------------------|
|----------9h11-9-----------|
|------------------12-9~----|
|---------------------------|
|---------------------------|

GtrII
|-------------------------------------------------------------|
|-------------------------------------------------------------|
|--4-------4-------------------------------------4-------4----|
|--4-44-4--4--44-4--5-22-2-5--5-4-2---22-2-2-2-4-4-44-4--4-44-|2x
|--2-44-4--2--44-4--5-22-2-5--5-4-2---22-2-2-2-4-2-44-4--2-44-|
|----22-2-----22-2--3-00-0-3--3-2-0---00-0-0-0-2---22-2----22-|


Refrain-
GtrII- G Bm G F#

|---------------------------|
|---------------------------|
|-------4-------------------|
|-5~----4~----5~-444444444~-|
|-5~----2~----5~-444444444~-|
|-3~----------3~-222222222~-|
GtrI
|---------------------------|
|---------------------------|
|-4~~~~~~~~~~~~~~~~~3^r^r^r-|
|---------------------------|
|---------------------------|
|---------------------------|


GtrIdo Chorus II
GtrII


|--------------------------------------------------------------|
|--------------------------------------------------------------|
|-7-777-6-7-777-6----------------------------------------------|
|------------------5555555555555-4-2222222222222222-99999999---|
|-5-555-4-5-555-4--5555555555555-4-2222222222222222-99999999---|
|------------------3333333333333-2-0000000000000000-77777777---|


2:57 ?
|---------------------------|
|----------7---------7-8----|
|-----6-7-9------7-9--------|
|-7-9---------7-9-----------|
|---------------------------|
|---------------------------|

|-------------------------------------------------------------------------------|
|-------------------------------------------------------------------------------|
|-11-111111-9--11-111111-141414141414-12~-7~--7~--7~--7~------------------------|
|-------------------------------------------------------------------------------|
|-9--9-9-9--7--9--9-9-9--121212121212-10--5~--5~--5~--5~------------------------|
|-------------------------------------------------------------------------------|
--------------------------------------------------------------------------------|
			    Tiffany Blews - Fall Out Boy
-------------------------------------------------------------------------------
Tabbed by: Kevin Heiland
Email: kevin.heiland@gmail.com

Tuning:Standard

Thanks to those who got bass tabs out first; gives us all a good head start!

Verse:

e|--------------------------------|------------------------------------------|
B|--------------------------------|o----------------------------------------o|
G|--------------------------------|------------------------------------------|
D|--------------------------------|------------------------------------------|
A|------------------66-4-6-6\-----|o------------------66-4-6--66-4-6--66-66-o|
E|--4-2-4---66-4-6----------------|----4-2-4--66-4-6-------------------------|

Pre-Chorus: "My friends all lie and say..."

e|---------------------------------------------------------------------------|
B|---------------------------------------------------------------------------|
G|---------------------------------------------------------------------------|
D|-22222222-44444444-66666666-66666666-22222222------------------------------|
A|-22222222-44444444-66666666-66666666-22222222------------------------------|
E|-00000000-22222222-44444444-44444444-00000000------------------------------|

Chorus: "And oh, baby, you're a classic, like a little black dress..."

e|--------------------------------------------------------------------------------|
B|--------------------------------------------------------------------------------|
G|-------------------44444444-----------------------------------------------------|
D|-66666666-22222222-44444444-----------22222222-66666666-44444444-2222-2-1-------|
A|-66666666-22222222-22222222-----2-4-2-22222222-66666666-44444444-2222-----4--2--|
E|-44444444-00000000----------2-4-------00000000-44444444-22222222-0000-----------|

Verse x1

Pre-Chorus x1

Chorus x2

e|-------------------|
B|-------------------|
G|-------------------|
D|-2~----------------|
A|-2~--2-1-----------|
E|-0~------2-2-4-----|

Pre-Chorus x1

Modified Chorus:

e|-------------------------------------------------------------------------------|
B|-------------------------------------------------------------------------------|
G|------------------44444444-----------------------------------------------------|
D|-2-2-2-2-22222222-44444444-----------22222222-66666666-44444444-2222-2-1-------|
A|-2-2-2-2-22222222-22222222-----2-4-2-22222222-66666666-44444444-2222-----4--2--|
E|-0-0-0-0-00000000----------2-4-------00000000-44444444-22222222-0000-----------|
   . .   .

| .  palm mute
| /  slide up
| \  slide down
| h  hammer-on
| p  pull-off
| ~  vibrato
| +  harmonic
| x  Mute note
===============================================================================
West Coast Smoker - Fall Out bOY
===============================================================================
Intro (0:01-0:08)
e|------------------------------------|
B|-5-5\3-5--3-5-7-8-8-8-10-8-5--555---|
G|-0-0\0-0--0-0-0-0-0-0--0-0-0--000---|X2
D|------------------------------------|
A|------------------------------------|
D|------------------------------------|
Pm                              ...

Verse 1 (0:08-0:40)
e|---------------------|----------------------|
B|---------------------|--------------------X2|
G|-------------------X2|-----5--------5-4-----|
D|-----5--------5-4----|-7-7----7-7-7---------|
A|-7-7----7-7-7--------|----------------------|
D|---------------------|----------------------|

Chours (0:40-0:56)
e|-----------------------|
B|-----------------------|
G|-----------------------|
D|-2222-5555-4444-3333---|X4
A|-2222-5555-4444-3333---|
D|-2222-5555-4444-3333---|

Intro (0:56-1:04)
e|------------------------------------|
B|-5-5\3-5--3-5-7-8-8-8-10-8-5--555---|
G|-0-0\0-0--0-0-0-0-0-0--0-0-0--000---|X2
D|------------------------------------|
A|------------------------------------|
D|------------------------------------|
Pm                              ...

Verse 2 (1:04-1:36)
e|---------------------|----------------------|
B|-------------------X2|--------------------X2|
G|---------------------|-----5--------5-4-----|
D|-----5--------5-4----|-7-7----7-7-7---------|
A|-7-7----7-7-7--------|----------------------|
D|---------------------|----------------------|

Chours 2 (1:38-1:52)
e|------------------|-----------------------|
B|----------------X1|---------------------X3|
G|------------------|-----------------------|
D|-5555-4444-3333---|-2222-5555-4444-3333---|
A|-5555-4444-3333---|-2222-5555-4444-3333---|
D|-5555-4444-3333---|-2222-5555-4444-3333---|

Bridge (2:01-2:16)
e|----------------------------------------XXX------|
B|--------------------------------8-------XXX------|
G|---------------------------9~-9---9~-9~-XXX--9*--|
D|-2---5-5--4-4-3~------5-7---------------XXX------|
A|-2---5-5--4-4-3~--5-7-------------------XXX------|
D|-2---5-5--4-4-3~------------------------XXX------|
pm                                        ...

Chours 3 (2:16-2:42)
e|------------------------|
B|---------------------X6-|
G|------------------------|
D|-2222-5555-4444-3333\---|
A|-2222-5555-4444-3333\---|
D|-2222-5555-4444-3333\---|
Добавлено: 29.10.2013
Другие материалы по этой песне:
  • Аккорды и текст

Страница создана 29.10.2013
http://primanota.ru/fall-out-boy/folie-a-deux-chords.htm
Привет, Гость.
Предлагаем пройти революционный курс по гитаре.
Подарок от PrimaNota.Ru, забирай!