PrimaNota.ru - самый крупный в мире бесплатный архив песенных текстов, аккордов, табулатур и нот


Fall Out Boy - Evening Out With Your Girlfriend (album) - таба, видео

Регистрация Запомнить меня
Войти через:  Facebook Google Twitter Vk Yandex Mail.ru

Fall Out Boy - Evening Out With Your Girlfriend (album) - таба, видео

Печатать
Просмотров: 272
Fall Out Boys Evening Out With Your Girlfriend

1. Honorable Mention
2. Calm Before The Storm
3. Switchblades And Infidelity
4. Pretty In Punk
5. Growing Up
6. The World's Not Waiting (For Five Tired Boys And A Broken Down Van)
7. Short, Fast, And Loud
8. Moving Pictures
9. Parker Lewis Can't Lose (But I'm Going To Give It My Best Shot)
============================================================================

band: fall out boy
song: honorable mention
tuning: normal

Riff 1:                                            Other guitar.
E------------------------------------------|----------------------------------|
B------------------------------------------|----------------------------------|
G------------------------------------------|----------------------------------|
D-2222222---------77777777-----------------|----55-33-22-33-55-33-22-33-55555-|
A-2222222-5555555-55555555--5555555--------|----------------------------------|
E-0000000-3333333-----------3333333 x's 2--|----------------------------------|

Riff 2:                                                           Other guitar.
E------------------------------------------------------------|-----------------------|
B------------------------------------------------------------|-----------------------|
G------------------------------------------------------------|-----------------------|
D-------------5-4--------------------------------------------|-3333-2222-3333-555555-|
A-33--55--77---------------------333333-555555-777777--------|-----------------------|
E-11--33--55--------x's 2 then --111111-333333-555555 x's 2 -|-----------------------|

Riff 3:                                                           Other guitar.
E--------------------------------------------------------------|------------------------|
B--------------------------------------------------------------|------------------------|
G--------------------------------------------------------------|------------------------|
D----4-----4--77777777--------------4-----4--33-3-33-3-33-33-2-|--5-333-222-333-5-3-2-3-|
A-4--2--4--2--55555555-33333333--4--2--4--2--11-1-11-1-11-11-2-|------------------------|
E-2-----2--------------11111111--2-----2---------------------0-|------------------------|

Riff 4:                             Other guitar.
E--------------------------------|-------------------------------------|
B--------------------------------|-------------------------------------|
G--------------------------------|-------------------------------------|
D----------77777-55555---------4-|--55-33-55-3333-222-5555-333-22-3333-|
A-33-55-77-55555-33333---------2-|-------------------------------------|
E-11-33-55--------------x's 3----|-------------------------------------|

Riff 1

Riff 2

Riff 3

Riff 4

Riff 5:
E--------------------------------|
B--------------------------------|
G--------------------------------|
D-------------------3333-33-3-33-|
A-2222-3333--------------11-1-11-|
E-----------x's 14---------------|
pm.... ....

Riff 4

Riff 6:
E-----------------------------------------------------|
B-----------------------------------------------------|
G-----------------------------------------------------|
D-------------------222222--------55555-777-555-------|
A-33-33-33-33--3----222222-555555-33333-555-333-------|
E-11-11-11-11--1----000000-333333-------------- x's 3-|
____________________________________________________________________________
Band: Fall Out Boy
Song: Callm Before The Storm

* = palm mute
> = continue to strum(if star under it, then palm mute the strum)
h = hammer on
~ = let ring


Intro  x4
e-----------------------------------------------------------------------|
b-----------------------------------------------------------------------|
g-----------------------------------------------------------------------|
d-------------------------------------------7------7-------7--------7---|
a--4-4--4h5---4-4--4h5------------------55-----44-----22------22--------|
e---------------------------55--99--77----------------------------------|
   * *        * *           **  **   **

Verse  x2  (palm mute)
e------------------------------------------------------------------|
b------------------------------------------------------------------|
g--7~ ---------------------------------------4>--------------------|
d--7~ ----7>-----2>-----4>-----2>-----7>-----4>----4>----2>--------|
a--5~ ----7>-----2>-----4>-----2>-----7>-----2>----4>----2>--------|
e---------5>-----0>-----2>-----0>-----5>-----------2>----0>--------|
           *      *      *      *      *      *     *     *

Pre-Chorus  x4
e--------------------|
b--------------------|
g--7>----------------|
d--7>----4>----2>----|
a--5>----4>----2>----|
e--------2>----0>----|

Chorus  x2
e--------------------------------------------|
b--------------------------------------------|
g--------------------------------------------|
d--77--77----22--22----44--44----7>----2>----|
a--77--77----22--22----44--44----7>----2>----|
e--55--55----00--00----22--22----5>----0>----|


Intro


Verse


Pre-Chorus


Chorus  (guitar 1 does regular chorus)
Guitar 2 Chorus(this time only)
e---------------------|
b---------------------|
g--x-2-2---x-4-4------|
d---------------------|
a---------------------|
e---------------------|


Bridge (guitar 1) repeat a lot
e---------------------------------|
b---------------------------------|
g---------------------------------|
d---------------------------------|
a---44444-4h5---44444 4h5---------|
e---------------------------------|
    *****       *****

Bridge(guitar 2) listen on this part, its a weird rhythm, letting on and off
e----------------------|
b----------------------|
g--7>------------------|
d--7>-----4>-----2>----|
a--5>-----4>-----2>----|
e---------2>-----0>----|

Bridge2(cont.) (guitar 2)  x5
e--------------------------------------|
b--------------------------------------|
g---7>----6>----7>-----9>--------------|
d---x>----x>----x>-----x>-------7~ ----|
a---5>----4>----5>-----7>-------7~ ----|
e-------------------------------5~ ----|

Bridge(cont.)(same as pre-chorus) Guitar 1 x4
e----------------------------|
b----------------------------|
g--7>------------------------|
d--7>----4>----2>------7~ ---|
a--5>----4>----2>------7~ ---|
e--------2>----0>------5~ ---|

Pause with Only Singing


Outro(both guitars)
e----------------------------------------------------------------------------|
b----------------------------------------------------------------------------|
g----------------------------------------------------------------------------|
d---4>---7>----2>----7>----2>----4>----7>----2>----4>-----7~ ----2~ ----7~ --|
a---4>---7>----2>----7>----2>----4>----7>----2>----4>-----7~ ----2~ ----7~ --|
e---2>---5>----0>----5>----0>----2>----5>----0>----2>-----5~ ----0~ ----5~ --|
____________________________________________________________________________
band: fall out boy
song: switchblades and infidelity
tuning: normal

riff 1:
E--------------------------------------7-9-7-5-7-5-4 x's 8-|
B----------------------------------------------------------|
G----------------------------------------------------------|
D---------44444444-----------------4-----------------------|
A-666-444-22222222---------666-444-2-----------------------|
E-444-222-----------x's 3--444-222-------------------------|

Riff 2: Part A                               Part B
E---------------------------------------|--------------------------------------|
B---------------------------------------|--------------------------------------|
G---------------------------------------|--------------------------------------|
D-6-------4-------4-6-------6-4-------2-|--------6---------4--------6--6-4-4-2-|
A-4-------2-------2-4-------4-2-------2-|--------4---------2--------4--4-2-2-2-|
E---00000---00000-----00000-----00000-0-|-00000-----000000---000000----------0-|
pm  .....   .....     .....     .....     .....     ......   ......

Riff 3:
E---------------------------------------|
B---------------------------------------|
G---------------------------------------|
D-88-88-8-44-44-4-22-22-2---------------|
A-66-66-6-22-22-2-22-22-2-44-44-4-------|
E-----------------00-00-0-22-22-2 x's 4-|

Riff 2: Part A x's 2 , Part A + Part B

Riff 3

Riff 4:
E----55----77--------3-2-1-4-3-2-1-4-3-2-1-4-5 x's 6-8-| (couldn't tell exactly)
B-33----55--- x's 8------------------------------------|
G------------------------------------------------------|
D------------------------------------------------------|
A------------------------------------------------------|
E------------------------------------------------------|
No fall out boy song is complete without muffled together notes. =D

Riff 3: Till End.
____________________________________________________________________________
Band: Fall Out Boy
Song: Pretty In Punk
Tuning: normal

Riff 1:
E------------------------------------------------------------------|
B------------------------------------------------------------------|
G------------------------------------------------------------------|
D-----------7----6-4----8-6----------------------------------------|
A----5-4------4------6--------------777777-6-5-555555-4-3--------7-|
E-33-----5----------------- x's 2---555555-4-3-333333-2-1 x's 4--5-|

Part A
Riff 2:
Sounds like riff 1 is played under
E--------------------------------------------------------------------------------------------|
---------------------------------------------------------------------------------------------|
B--------------------------------------------------------------------------------------------|
---------------------------------------------------------------------------------------------|
G--------------------------------------------------------------------------------------------|
---------------------------------------------------------------------------------------------|
D-----------444--777------------444--777777--------------------------------------------------|
---------------------------------------------------------------------------------------------|
A-777--444--222--555--777--444--222--555555---99999999-1212121212-7777777-5555555-999999-12--|
-77777-55555-99999-111111--------------------------------------------------------------------|
E-555--222------------555--222----------------77777777-1010101010-5555555-3333333-777777-10--|
-55555-33333-77777-99999- x's 4--------------------------------------------------------------|

Riff 3:
E---------------------------------|
B---------------------------------|
G-7-6------7-6-7-9--------7-6-----|
D-----7-6---------------------7-6-|
A----------------- x's 3----------|
E---------------------------------|

Riff 2

Riff 4:
E---------------------------------------------------------------------------------------------|
B---------------------------------------------------------------------------------------------|
G---------------------------------------------------------------------------------------------|
D----7----7----7----7----7----7----7----7----------14141414-16161616-19191919-17171717--------|
A-55---55---44---44---33---33---22---22-- x's 4----12121212-14141414-17171717-15151515 x's 2--|
E---------------------------------------------------------------------------------------------|
pm..   ..   ..   ..   ..   ..   ..   ..

Riff 5:
E---------------------------------------------------------------------------------------------------|
B---------------------------------------------------------------------------------------------------|
G---------------------------------------------------------------------------------------------------|
D------9999-1111-9999-1111-9-------9999-1111-9999-1111-9------9999-1111-9999-1111-9-----------------|
A-7777-----------------------5555------------------------4444------------------------77-9999--------|
E-5555-----------------------3333------------------------2222------------------------55-7777 x's 2--|

Riff 2: Part A x's 8

Riff 6:
E-------------------------------------|
B-------------------------------------|
G-------------------------------------|
D-66666-444444-888888-999999--------6-|
A-44444-222222-666666-777777 x's 4--4-|
E-------------------------------------|
____________________________________________________________________________
band: Fall Out Boy
song: Gorwing Up
Tuning: standard

Intro (0:05)
Guitar 1
e|-----------------------------|
B|-----------------------------|
G|-----------------------------|
D|---7-7-7-7---5-5-5-5---5-5---|
A|---7-7-7-7---5-5-5-5---5-5---|
E|---5-5-5-5---3-3-3-3---3-3---|

Intro (0:07)
Guitar 1
e|------------------------------------------------|----------------------------|
B|------------------------------------------------|----------------------------|
G|-5~--------------9~-------------10~-------------|----------------------------|
D|-5~--------------9~-------------10~-------------|-7-7-7-7---5-5-5-5---5-5----|
A|-3~--------------7~--------------8~-------------|-7-7-7-7---5-5-5-5---5-5----|
E|------------------------------------------------|-5-5-5-5---3-3-3-3---3-3----|

Intro (0:07)
Guitar 2
e|------------------------------------------------|
B|------------------------------------------------|
G|----5-5--4--0~------5-5--4--0~------5-5--4--0~--|
D|------------------------------------------------|
A|------------------------------------------------|
E|------------------------------------------------|

Intro (0:14)
Guitar 1
e|------------------------------------------------|---------------------------------|
B|------------------------------------------------|---------------------------------|
G|-5~--------------9~-------------10~-------------|---------------------------------|
D|-5~--------------9~-------------10~-------------|-7-7-7-7---5-5-5-5---5-5-----3~--|
A|-3~--------------7~--------------8~-------------|-7-7-7-7---5-5-5-5---5-5-----3~--|
E|------------------------------------------------|-5-5-5-5---3-3-3-3---3-3-----1~--|

Intro (0:14)
Guitar 2
e|------------------------------------------------|
B|------------------------------------------------|
G|----5-5--4--0~------5-5--4--0~------5-5--4--0~--|
D|------------------------------------------------|
A|------------------------------------------------|
E|------------------------------------------------|

Verse 1 (0:22)
Guitar 1 & 2
e|---------------------------------------------------------------------------------------|
B|---------------------------------------------------------------------------------------|
G|----5-5-5-5-5-5-5-5-5-5---------------------------------------------5-5-5-5-5-5-5-5----|
D|----5-5-5-5-5-5-5-3-5-5-3-3-3-3-3-3-3-3-3-3-3-3-7-7-7-7-7-5-5-5-5-5-5-5-5-5-5-5-5-5----| X4
A|----3-3-3-3-3-3-3-3-3-3-3-3-3-3-3-3-3-3-3-3-3-3-7-7-7-7-7-5-5-5-5-5-3-3-3-3-3-3-3-3----|
E|--------------------------1-1-1-1-1-1-1-1-1-1-1-5-5-5-5-5-3-3-3-3-3--------------------|
 pm     . . . . . . .         . . . . . . . .       . . . .   . . . .

Chorus (0:49)
Guitar 1
e|------------------------------------|
B|------------------------------------|
G|--5-5-5-5---------------------------|
D|--5-5-5-5-5-5-5-5-7-7-7-7-3-3-3-3---| X3
A|--3-3-3-3-5-5-5-5-7-7-7-7-3-3-3-3---|
E|----------3-3-3-3-5-5-5-5-1-1-1-1---|

Chorus (0:59)
Guitar 2
e|--------------------------------|
B|--------------------------------|
G|--5-4-0---7-5-4---5-4-0---7-5-4-|
D|--------------------------------| X3
A|--------------------------------|
E|--------------------------------|

Chorus (0:59)
Guitar 1
e|------------------------------------|
B|------------------------------------|
G|--5-5-5-5---------------------------|
D|--5-5-5-5-5-5-5-5-7-7-7-7-3-2-3-2---| X1
A|--3-3-3-3-5-5-5-5-7-7-7-7-3-2-3-2---|
E|----------3-3-3-3-5-5-5-5-1-0-1-0---|

Chorus (0:59)
Guitar 2
e|--------------------------------|
B|--------------------------------|
G|--5-4-0---7-5-4---5-4-0---------|
D|--------------------------------| X1
A|--------------------------------|
E|--------------------------------|

Chorus (1:03)
Guitar 1
e|------------------------------------------------|-----------------------------|
B|------------------------------------------------|-----------------------------|
G|-5~--------------9~-------------10~-------------|-----------------------------|
D|-5~--------------9~-------------10~-------------|-7-7-7-7---5-5-5-5---5-5-----| X2
A|-3~--------------7~--------------8~-------------|-7-7-7-7---5-5-5-5---5-5-----|
E|------------------------------------------------|-5-5-5-5---3-3-3-3---3-3-----|

Chorus (1:03)
Guitar 2
e|------------------------------------------------|
B|------------------------------------------------|
G|----5-5--4--0~------5-5--4--0~------5-5--4--0~--|
D|------------------------------------------------| X2
A|------------------------------------------------|
E|------------------------------------------------|

Verse 2 Starts without guitar.
Second time through play the same as verse 1, without the mutes between chords
Chorus 2 is the same as Chorus 1

Bridge (1:58)
Guitar 1
e|-------------------------------------------------------------------------|
B|-------------------------------------------------------------------------|
G|---5-5-------------------------------------------------------------------|
D|---5-5-----------3-3------------7-7------------5-5-----------------------| X4
A|---3-5-----------3-3------------7-7------------5-5-----------------------|
E|-----------------1-1------------5-5------------3-3-----------------------|

Bridge (1:58)
Guitar 2
e|---------------------------------------------------------------------------|
B|---------------------------------------------------------------------------|
G|-------5-5-4-0--------5-5-4-0--------5-5-4-0--------5-5-4-0----------------|
D|---------------------------------------------------------------------------| X4
A|---------------------------------------------------------------------------|
E|---------------------------------------------------------------------------|

Outro (2:20)
Guitar 1
e|----------------------------------|
B|----------------------------------|
G|----5--5--------------------------|
D|----5--5--3--3-/-7-7-/-5-5--------| X4
A|----3--3--3--3-/-7-7-/-5-5--------|
E|----------1--1-/-5-5-/-3-3--------|

End on
e|----------|
B|----------|
G|----5~----|
D|----5~----|
A|----3~----|
E|----------|

| /  slide up
| \  slide down
| h  hammer-on
| p  pull-off
| ~  vibrato
| +  harmonic
| x  Mute note
____________________________________________________________________________
Band: Fall out boy
Song: The Worlds Not Waiting
Tuning: normal

Riff 1:
E----------------------------------------------------------------|
B----------------------------------------------------------------|
G----------------------------------------------------------------|
D-------22222-555555---------------------------------------------|
A-55555-22222-333333-55555--4--------5-------4-----------------5-|
E-33333-00000--------33333--2-222222-3-33333-2-22222  x's 2 ---3-|
pm                            ......   .....   .....

Riff 2:         Part A                                   Part B
E------------------------------------------------|------------------------------------------------|
B------------------------------------------------|------------------------------------------------|
G------------------------------------------------|------------------------------------------------|
D------------------------------------------------|--------777777----------------------------------|
A----5----5----4----4----7----7----6----6--------|--9--4--555555-777777---------------------------|
E-00-3-00-3-00-2-00-2-00-5-00-5-00-4-00-4  x's 4-|--7--2---------555555 x's 2  Then Part A x's 4--|
pm..   ..   ..   ..   ..   ..   ..   ..

Riff 3:
E----------------------|
B----------------------|
G----------------------|
D-------2--------------|
A-7--4--2--4---------7-|
E-5--2--0--2 x's 4 --5-|

Riff 4: Pm's begin while lead is still playing, then they combine.
E------------------------------------------------|
B------------------------------------------------|
G------------------------------------------------|
D------------------------------------------------|
A-5/4/7-5-4--------5/4/7--5555555555555555555--5-|
E-----------x's 5---------3333333333333333333--3-|
pm                        ...................

Outro:
E-------------------------------|
B-------------------------------|
G-------------------------------|
D------2222-5555----------------|
A-5555-2222-3333-5555---------5-|
E-3333-0000------3333 x's 8---3-|
____________________________________________________________________________
Band: Fall Out Boy
Song: Short Fast And Loud
Tuning: Normal

Intro:
E------------------------|
B------------------------|
G------------------------|
D----------------------2-|
A-4-2-3-4-5-4-3-4-5-6--2-|
E-2---------2----------0-|

Riff 1: 2 guitars. 0pm's throughout.  A                 B
E---------------------------------------------|-------------------------------------------------------|
B---------------------------------------------|-------------------------------------------------------|
G---------------------------------------------|-------------------------------------------------------|
D-3-2-3-2-3-2-3-5-3-2-3 x's 3--5-7-9-10-9-7-5-|-3-2-3-2-3-2-3-5-3-2-3-x's 2--22----22----22----22-----|
A------------------------------3-5-7-8--7-5-3-|------------------------------22-55-22-55-22-55-22-55--|
E---------------------------------------------|------------------------------00-33-00-33-00-33-00-33--|

Riff 1: A , B

Riff 2:  Guitar 1                                    Guitar 2
E-----------------------------------------------|-----------------|
B-----------------------------------------------|-----------------|
G-----------22-22-------------------------------|-----------------|
D-55-55-----22-22-22----------------------------|-3-5-3-2h3 x's 8-|
A-33-33-55--00-00-22--55-55/33--77-77/55--------|-----------------|
E-------33--------00--33-33/11--55-55/33 x's 2--|-----------------|

Riff 1: A , B

Riff 1: A , B

Riff 3:
E------------------------------------------------------|
B------------------------------------------------------|
G------------------------------------------------------|
D----9----99-----7----77-----5----55-----7----77-------|
A-77---77-----55---55-----33---33-----55---55--- x's 4-|
E------------------------------------------------------|

Riff 2 x's 2
____________________________________________________________________________
band: fall out boy
song: moving pictures
Tuning: normal

Riff 1:   Guitar 1                     Guitar 2 (used throughout song)
E--------------------------------|---------|
B--------------------------------|---------|
G--------------------------------|--12-9-8-| (rapidly)
D----2-----2-----2-----2---------|---------|
A-6--2--6--2--8--2--8--2-4-6-8---|---------|
E-4--0--4--0--6--0--6--0-2-4-6---|---------|

Riff 2:
E--------------------------------------------|
B--------------------------------------------|
G--------------------------------------------|
D------------2-----------------------------2-|
A-9----------2------------------9----------2-|
E-7-77777777-0-000000000 x's 3--7-77777777-0-|
pm  ........   .........          ........

Riff 3:    Part A                                        Part B
E---------------------------------------------|----------------------------------------------|
B---------------------------------------------|----------------------------------------------|
G---------------------------------------------|----------------------------------------------|
D---------222-222-222-------------2-----------|---------2222222---------2222222--------------|
A-666-444-222-222-222-44--666-444-2--4-6-8-9--|-6666666-2222222-4444444-2222222--------4444--|
E-444-222-000-000-000-22--444-222-0--2-4-6-7--|-4444444-0000000-2222222-0000000 x's 2--2222--|

Riff 3

Riff 3: Part A

Riff 4:
E----------------------------------------------------------------------------------------------|
B----------------------------------------------------------------------------------------------|
G----------------------------------------------------------------------------------------------|
D----------------------------------------------------------------------------------------------|
A-66-666-6/8/9-99-999-9/11/8-88-888-88-888-888-888--------66-666-6/8/9-99-999-9/11-8--4-6-8-9--|
E-44-444-4/6/7-77-777-7/9/-6-66-666-66-666-666-666 x's 3--44-444-4/6/7-77-777-7/9--6--2-4-6-7--|

Riff 3: Part B

Really light strumming, semi-inaudible

Riff 3: Part B x's 4
____________________________________________________________________________
band: fall out boy
song: parker lewis can't lose
Tuning: Normal

Riff 1:
E------------------------------------------------------------------------------------------------|
B------------------------------------------------------------------------------------------------|
G-----5-4-------5-4------------7------------------7------------------5------------5-4-------5-4--|
D------------------------------------------------------------------------------------------------|
A-333------333---------55-5-55--- x's 4---77-7-77--- x's 4---55-5-55-- x's 2--333------333-------|
E------------------------------------------------------------------------------------------------|
pm                     ..   ..            ..   ..            ..   ..

Riff 2:    Guitar 1                                                  Guitar 2
E---------------------------------------------------------------|-------------------|
B---------------------------------------------------------------|-------------------|
G---------------------------------------------------------------|--4-4-4-4h5 x's 10-|
D---------------------------------------------------------------|-------------------|
A---------------------------------------------------------------|-------------------|
E-0000000-333-44444444-666-777777777-4444444444 x's 2--4444444--|-------------------|
pm....... ... ........ ... ......... ..........        .......

Riff 3:
E------------------------------------------------------------------|
B------------------------------------------------------------------|
G------------------------------------------------------------------|
D---------------------------------------------------------9-7-9-10-|
A-6666666-888-999999999-888---------6666666-888-999999999-7-5-7-8--|
E-4444444-666-777777777-666 x's 2---4444444-666-777777777----------|

Riff 4:
E---------------------------------------|
B---------------------------------------|
G---------------------------------------|
D---------------99--9-7-77-7/9--------9-|
A-55-6-6/8-8--8-77--7-5-55-5/7--------7-|
E-33-4-4/6-6--6--------------- x's 3----|

Riff 5:
E--------------------------------------------------------|
B--------------------------------------------------------|
G----------7----------------5----------------------------|
D--------------------------------------------------------|
A-55-5-55--- x's 4--55-5-55-- x's 4----------------------|
E----------------------------          Whole thing x's 2-|
pm..   ..           ..   ..

Riff 2

Riff 3

Riff 4

Riff 6:
E---------------------------------------------------------------------------------------|
B---------------------------------------------------------------------------------------|
G---------------------------------------------------------------------------------------|
D-9-7-9-10---------------9999--7777-------------------------9999999-7777777-------------|
A-7-5-7-8----6666--9999--7777--5555---------6666666-9999999-7777777-5555555--------6666-|
E------------4444--7777------------- x's 4--4444444-7777777---------------- x's 2--4444-|
Добавлено: 06.07.2012
Другие материалы по этой песне:
  • Аккорды и текст

Страница создана 06.07.2012
http://primanota.ru/fall-out-boy/evening-out-with-your-girlfriend-album-chords.htm
Привет, Гость.
Предлагаем пройти революционный курс по гитаре.
Подарок от PrimaNota.Ru, забирай!