PrimaNota.ru - самый крупный в мире бесплатный архив песенных текстов, аккордов, табулатур и нот


Fall Out Boy - Believers Never Die (album) - таба, видео

Регистрация Запомнить меня
Войти через:  Facebook Google Twitter Vk Yandex Mail.ru

Fall Out Boy - Believers Never Die (album) - таба, видео

Печатать
Просмотров: 208
ALBUM: BELIEVERS NEVER DIE [GREATEST HITS]
BAND : FALL OUT BOY

COMPILED BY: RUSSELL LEE (MORTE_COEUR)

I TOOK ALL THE HIGHEST RATED TABS FROM U-G AND COMPILED THEM =D

IF YOUR TAB IS ON HERE, PLEASE CONTACT ME IF YOU WANT IT REMOVED, OR IF YOU HAVE UPDATED
YOUR TAB AND WANT IT UPDATED ON HERE.



LISTING:
DEAD ON ARRIVAL......................................DIAMOND JERRY (RAPTUREBOY182@YAHOO.COM)
GRAND THEFT AUTUMN...................................STEPH (XFCKTHESYSTMX@YAHOO.COM)
SATURDAY.............................................UNREGISTERED
SUGER, WE'RE GOING DOWN..............................STEPHEN ADAMS (BIGSTEVE0788@AOL.COM)
DANCE, DANCE.........................................LARRY-A
A LITTLE LESS SIXTEEN CANDLES, A LITTLE MORE TOUCH ME.......LARRY-A
THIS AIN'T A SCENE, IT'S AN ARMS RACE.......................SHUGO449
THNKS FR TH MMRS............................................KIEFERMATOT
THE TAKE OVER, THE BREAKS OVER..............................RYAN MANONGDO (NO_FALTER0X@YAHOO.COM)
I'M LIKE A LAWYER WITH THE WAY I'M ALWAYS TRYING TO GET YOU OFF (ME & YOU).......F_SARIO@YAHOO.COM
BEAT IT (FEATURING JOHN MAYER).................JAYTEEROCKS07
I DON'T CARE...................................SHAWN (MOTIONCITYOST@YAHOO.COM)
AMERICA'S SUITEHEARTS..........................RYAN MANONGDO (NO_FALTER0X@YAHOO.COM)
WHAT A CATCH, DONNIE...........................PNKR0CKER
ALPHA DOG......................................KEVY ABSOLUTION (KEVIN.HEILAND@GMAIL.COM)
FROM NOW ON WE ARE ENEMIES.....................KELLAN6
YULE SHOOT YOUR EYE OUT........................PMEG568C
GROWING UP.....................................ANDREW LASSISE (LASSISE2@HOTMAIL.COM)




1. DEAD ON ARRIVAL

------------------------------------------------------------------------------


[Intro]
e|--------------------------------------|------------|
B|--------------------------------------|------------|
G|-------------------(0-4-5-4-0)--------|--^^^^^^^---|
D|---33--777--555------------------(3x)-|--5555555---|
A|---33--777--555-----------------------|--5555555---|
E|---11--555--333-----------------------|--3333333---|


[Verse] 
e|---------------------------------------------------|
B|---------------------------------------------------|
G|--55555555--*--------------^^^^^^^^-^-^---^-^------|
D|--55555555--2--3--777777---33333333-3-3---5-5------|
A|--33333333--2--3--777777---33333333-3-3---5-5------|
E|------------0--1--555555---11111111-1-1---3-3------|

e|---------------------------------------------------|
B|---------------------------------------------------|
G|--55555555--*--------------^^^^^^^^-^-^---^-^------|
D|--55555555--2--3--777777---33333333-3-3---6-6------|
A|--33333333--2--3--777777---33333333-3-3---6-6------|
E|------------0--1--555555---11111111-1-1---4-4------|


Play this on * 
e|--------------------|
B|---5-3----5-3-------|
G|--------5------5~---| (harmonic)
D|--------------------|
A|--------------------|
E|--------------------|


[Pre-chorus]
e|---------------------------------------------------|
B|---------------------------------------------------|
G|---------------------------------------------------|
D|--77777777--33333333---777777777---3-3-33---555----|
A|--77777777--33333333---777777777---3-3-33---555----|
E|--55555555--11111111---555555555---1-1-11---333----|


[Chorus]
e|---------------------------------------------------|
B|---------------------------------------------------|
G|--55-5---------------------------------------------|
D|--55-5---5--7----33-3---7--5----(4x)---------------|
A|--33-3---5--7----33-3---7--5-----------------------|
E|---------3--5----11-1---5--3-----------------------|


[Solo1]  F - C (4x) - G
e|---------------------------------------------------------------------------|
B|-----------------------33-55--------------------33-------------------------|
G|--55-44-55-44-55-44-55--------44-55-44-55-44-55----55----------------------|
D|---------------------------------------------------------------------------|
A|---------------------------------------------------------------------------|
E|---------------------------------------------------------------------------|

e|---------------------------------------------------------------------------|
B|--------------------33-55--------------------------------------------------|
G|--44-55-44-55-44-55--------44-55-44-55-44-55-------------------------------|
D|---------------------------------------------5~----------------------------|
A|---------------------------------------------------------------------------|
E|---------------------------------------------------------------------------|

[Solo2] -play along the solo1-
e|---------------------------------------------------------------------------|
B|--55-33-55-33-55-33-55-66-55---33-55-33-55-33-55-66-55---------------------|
G|---------------------------------------------------------------------------|
D|---------------------------------------------------------------------------|
A|---------------------------------------------------------------------------|
E|---------------------------------------------------------------------------|

e|---------------------------------------------------------------------------|
B|--33-55-33-55-33-55-66--8--6--5~-------------------------------------------|
G|---------------------------------------------------------------------------|
D|---------------------------------------------------------------------------|
A|---------------------------------------------------------------------------|
E|---------------------------------------------------------------------------|


-repeat verse, pre-chorus, chorus-


[Interlude]
e|-----------------------|-------------------------------------------------------|
B|-----------------------|-------------------------------------------------------|
G|--------------------5~-|-5555--7777--9999--10101010--12121212121212-14-12-7-5~-|
D|--33--77--55--(5x)--5~-|-xxxx--xxxx--xxxx---x-x-x-x---x-x-x-x-x-x-x--x--x-x-x--|
A|--33--77--55--------3~-|-3333--5555--7777---8-8-8-8--10101010101010-12-10-5-3~-|
E|--11--55--33-----------|-------------------------------------------------------|

e|---------------------------------------|---------------------------------------|
B|---------------------------------------|---------------------------------------|
G|--5~-------------------^^^^^^^^^^---55-|--101010101010--/17-17-17-17-17---55---|
D|--5~----33333333333333-3333333333---55-|---x-x-x-x-x-x--/-x--x--x--x--x---xx---|
A|--3~----33333333333333-3333333333---33-|---8-8-8-8-8-8--/15-15-15-15-15---33---|
E|--------11111111111111-1111111111------|---------------------------------------|


[Chorus2]
e|------------------------------------------|
B|------------------------------------------|
G|--55----------------55--------------------|
D|--55--3--7--5--7----55--3--7--5--7--------|
A|--33--3--7--5--7----33--3--7--5--7--------|
E|------1--5--3--5--------1--5--3--5--------|

-repeat chorus-

[Outro]
e|-------|
B|-------|
G|--55---|
D|--55---|
A|--33---|
E|-------|


2. GRAND THEFT AUTUMN
---------------------------------------------------------

Tuning: DADGBe

intro x6
1st verse x1
intro x1
chorus x1
intro x 4
2nd verse x1
chorus x1
solo x1
bridge x4
post bridge chorus x1
last chorus x1

intro   
e|-------------------------------------------------------------------------|
B|-------------------------------------------------------------------------|
G|----6/7777---6/7777----6/777---------------------------------------------|
D|----x-xxxx---x-xxxx----x-xxx---------------------------------------------|
A|----4/5555---4/5555----4/555---------------------------------------------|
D|-------------------------------------------------------------------------|

1st verse
e|-------------------------------------------------------------------------|
B|-------------------------------------------------------------------------|
G|-7--------------7--------------------------------------------------------|
D|-x--7------7----x--7-----7-----------------------------------------------|
A|-5--5---2--5----5--5--2--5-----------------------------------------------|
D|----5---2--5-------5--2--5-----------------------------------------------|

e|-------------------------------------------------------------------------|
B|-------------------------------------------------------------------------|
G|-------------------------------------------------------------------------|
D|-------------------------------------------------------------------------|
A|-55555555--77777777--00000000--44444444---55-55--77-77--00-00------------|
D|-55555555--77777777--00000000--44444444---55-55--77-77--00-00------------|

chorus
e|-------------------------------------------------------------------------|
B|-------------------------------------------------------------------------|
G|-------------------------------------------------------------------------|
D|-------------------------------------------------------------------------|
A|-99-55-00-44-55-77-00-44-55-77--00000000--22222222---5-------------------|
D|-99-55-00-44-55-77-00-44-55-77--00000000--22222222---5-------------------|

2nd verse
e|-------------------------------------------------------------------------|
B|-------------------------------------------------------------------------|
G|-7--------------7--------------------------------------------------------|
D|-x--7------7----x--7-----7-----------------------------------------------|
A|-5--5---2--5----5--5--2--5-----------------------------------------------|
D|----5---2--5-------5--2--5-----------------------------------------------|

e|-------------------------------------------------------------------------|
B|-------------------------------------------------------------------------|
G|-------------------------------------------------------------------------|
D|-------------------------------------------------------------------------|
A|-55555555--77777777--00000000--44444444---55-55--77-77--00-00--4-5/------|
D|-55555555--77777777--00000000--44444444---55-55--77-77--00-00--4-5/------|

solo
e|-------------------------------------------------------------------------|
B|-------------------------------------------------------------------------|
G|-------------------------------------------------------------------------|
D|-------77-7----77-7-------7-7-7---7------77-7----77-7-------77777777-----|
A|--55-5------55------5555-------55---55-5------55-------5555--------------|
D|-------------------------------------------------------------------------|


bridge
e|-------------------------------------------------------------------------|
B|-------------------------------------------------------------------------|
G|-------------------------------------------------------------------------|
D|-------------------------------------------------------------------------|
A|-99999999--77777777--00000000--55555555----------------------------------|
D|-99999999--77777777--00000000--55555555----------------------------------|
 
post bridge chorus
e|-------------------------------------------------------------------------|
B|-------------------------------------------------------------------------|
G|-------------------------------------------------------------------------|
D|-------------------------------------------------------------------------|
A|-99--55--00--44--55--77--5555-7777-00000000-22222222-55555555------------|
D|-99--55--00--44--55--77--5555-7777-00000000-22222222-55555555------------|

last chorus
e|-------------------------------------------------------------------------|
B|-------------------------------------------------------------------------|
G|-------------------------------------------------------------------------|
D|-------------------------------------------------------------------------|
A|-99-55-00-44-55-77-00-44-55-77--00000000--22222222---5----0--------------|
D|-99-55-00-44-55-77-00-44-55-77--00000000--22222222---5----0--------------|


3. SATURDAY
--------------------------------------------------------------------

Intro Part One 1x Guitars 1 and 2
E-----------------------------------------------------|
B-----------------------------------------------------|
G---------------------------------------666666666666--|
D--666666666666-999999999999-2-22-22-22-666666666666--|
A--666666666666-999999999999-2-22-22-22-444444444444--|
E--444444444444-777777777777-0-00-00-00---------------|

Intro Part Two 1x Guitar 1
E-----------------------------------------------------------|
B-----------------------------------------------------------|
G-----------------------------------------------------------|
D--222222222222-66-88-9999-22222222222222222222222222222222-|
A--222222222222-66-88-9999-22222222222222222222222222222222-|
E--000000000000-44-66-7777-00000000000000000000000000000000-|

Guitar 2
E-----------------------------------------------------------|
B-----------------------------------------------------------|
G--999999999999------------99-88-66-44-99999/1111-88888/99--|
D--xxxxxxxxxxxx-66-88-9999-xx-xx-xx-xx-99999/1111-88888/99--|
A--777777777777-66-88-9999-77-66-44-22-77777/9-9--66666/77--|
E---------------44-66-7777----------------------------------|

Verse 2x Guitar 1 
E---------------------------------------------------------------|
B---------------------------------------------------------------|
G---------------------------------------------------------------|
D--666666666666-/-222222222222-/-444444444444-/-222222222222-/--|
A--666666666666-/-222222222222-/-444444444444-/-222222222222-/--|
E--444444444444-/-000000000000-/-222222222222-/-000000000000-/--|
PM  ...........    ...........    ...........    ...........

Verse Part One 1x Guitar 2
E-----------------------------------------------------------|
B-----------------------------------------------------------|
G--------------------------------------------------88-66-44-|
D--666666666666-/-222222222222-/-444444444444-/-2--xx-xx-xx-|
A--666666666666-/-222222222222-/-444444444444-/-2--66-44-22-|
E--444444444444-/-000000000000-/-222222222222-/-0-----------|
PM  ...........    ...........    ...........

Verse Part Two 1x Guitar 2
E------------------------------------------------------------|
B--99999999999-1212121212121212-11111111111111-121212121212--|
G------------------------------------------------------------|
D------------------------------------------------------------|
A------------------------------------------------------------|
E------------------------------------------------------------|

Pre Chorus 1x Guitar 1 and 2
E----------|
B----------|
G------9~--| )
D--4-6-9~--| )Pickslide all three strings (A, D and G)
A--4-6-7~--| )
E--2-4-----|

Chorus Part One 2x Guitar 1
E-------------------------------------|
B-------------------------------------|
G------------------------66666-99999--|
D--9999999999-9999999999-66666-99999--|
A--9999999999-9999999999-44444-77777--|
E--7777777777-6666666666--------------|

Chorus Part One 2x Guitar 2

E------------------------------------------|
B------------------------------------------|
G-------------111111111111111-66666-99999--|
D--9999999999-111111111111111-66666-99999--|
A--9999999999-9-9-9-9-9-9-9-9-44444-77777--|
E--7777777777------------------------------|

Chorus Part Two 2x Guitars 1 and 2
E-------------------------------|
B-------------------------------|
G------------------66666-99999--|
D--9999----9999----66666-99999--|
A--9999----9999----44444-77777--|
E--7777----6666-----------------|

Verse 2 Part One 1x Guitar 1
E------------------------------|
B------------------------------|
G------------------------------|
D--6~--/--2~--/--4~--/--2~-xx--|
A--6~--/--2~--/--4~--/--2~-xx--|
E--4~--/--0~--/--2~--/--0~-xx--|

Verse 2 Part One 1x Guitar 2
E--------------------------|
B--------------------------|
G-------------11-----8-8---| )
D--6~------9~--x-8~--x-x---| )Pickslide
A--6~------9~--9-8~--6-6---| )
E--4~--4h6-7~----6~--------| 

Verse 2 Part Two 1x Guitar 1
E---------------------------------------------------------------|
B---------------------------------------------------------------|
G---------------------------------------------------------------|
D--666666666666-/-222222222222-/-444444444444-/-222222222222-/--|
A--666666666666-/-222222222222-/-444444444444-/-222222222222-/--|
E--444444444444-/-000000000000-/-222222222222-/-000000000000-/--|
PM  ...........    ...........    ...........    ...........

Verse 2 Part Two 1x Guitar 2
E-----------------------------------------------|
B-----------------------------------------------|
G--4444444444-9999999999-8888888888-9999999999--|
D--xxxxxxxxxx-xxxxxxxxxx-xxxxxxxxxx-xxxxxxxxxx--|
A--2222222222-7777777777-6666666666-7777777777--|
E-----------------------------------------------|

Repeat Pre Chorus

Repeat Chorus Part One 2x

Repeat Chorus Part Two 2x

Guitar 2 Solo/Interlude
E---2-0--------2-0--------2-0--------2-0--------2-0--------2-0-------
B--0-0-4-2p0--0-0-4-2p0--0-0-4-2p0--0-0-4-2p0--0-0-4-2p0--0-0-4-2p0--
G--------------------------------------------------------------------
D--------------------------------------------------------------------
A--------------------------------------------------------------------
E--------------------------------------------------------------------

Guitar 1 Interlude (During the Solo)
E--------------------------------------------------------------------
B--------------------------------------------------------------------
G--------------------------------------------------------------------
D-9~-----------------------------------------2~---------4~-----------
A-9~-----------------------------------------2~---------4~-----------
E-7~-----------------------------------------0~---------2~-----------

(Solo Continued)





E---2-0--------2-0--------2-0--------2-0--------2-0--------|
B--0-0-4-2p0--0-0-4-2p0--0-0-4-2p0--0-0-4-2p0--0-0-4-2p0---|
G----------------------------------------------------------|
D----------------------------------------------------------|
A----------------------------------------------------------|
E----------------------------------------------------------|

(Guitar 2 Interlude Continued)
E----------------------------------------------------------|
B----------------------------------------------------------|
G----------------------------------------------------------|
D-6~---------9--8--9--2~----------4~---------6~--------9---|
A-6~---------9--8--9--2~----------4~---------6~--------9---|
E-4~---------7--6--7--0~----------2~---------4~--------7---|

Bridge Part One 4x Guitars 1 and 2
E------------------------|
B------------------------|
G------------------------|
D--2222-4444-6666-9999---|
A--2222-4444-6666-9999---|
E--0000-2222-4444-7767---|

Bridge Part Two 1x
E-------|------------22x2x2xx2-|-------------|
B-------|---x4x4x44xx22x2x2xx2-|-------------|
G-------|---x4x4x44xx33x3x3xx3-|-6666-9999---|
D--9~---|---x4x4x44xx44x4x4xx4-|-6666-9999---|
A--9~---|---x2x2x22xx44x4x4xx4-|-4444-7777---|
E--7~---|------------22x2x2xx2-|-------------|
          <<>>

Chorus Part One 1x

Chorus Part Two 2x  (Guitar One plays it four times)

Post Chorus 2x Guitar 2
E---------------------------------------|
B---------------------------------------|
G--------------------------66666-99999--|
D--9999--------9999--------66666-99999--|
A--9999--------9999--------44444-77777--|
E--7777-7h9p7--6666-6h7p6---------------|

Outro 1x Guitars 1 and 2
E--------------|
B--------------|
G----------9~--|
D--4--6--9-9~--|
A--4--6--9-7~--|
E--2--4--7-----|


4. SUGAR, WE'RE GOING DOWN
---------------------------------------------

Tuning: Drop D
*=palm mute
h=hammer on 


Intro Guitar 1
e|------------------------------------------------------------|
B|------------------------------------------------------------|
G|------------------------------------------------------------|
D|-00000000-55555555-99999999-55555555------------------------|x2
A|-00000000-55555555-99999999-55555555------------------------|
D|-00000000-55555555-99999999-55555555------------------------|

Intro Guitar 2
e|------------------------------------------------------------|
B|-777-555-888-555-77-55--------------------------------------|
G|-777-777-777-777-77-77--------------------------------------|
D|------------------------------------------------------------|x2
A|------------------------------------------------------------|
D|------------------------------------------------------------|

Intro Guitar 2 Continued
e|------------------------------------------------------------|
B|-777-555-888-555-77-55-7~-----------------------------------|
G|-777-777-777-777-77-77-7~-----------------------------------|
D|------------------------------------------------------------|
A|------------------------------------------------------------|
D|------------------------------------------------------------|

Verse 1 Guitar 1 "Lie in the grass..."
e|------------------------------------------------------------|
B|------------------------------------------------------------|
G|-7-7-7-7--7-7-7-7-------------------------------------------|
D|-x-x-x-x--x-x-x-x-------------------------------------------|x4
A|-5-5-5-5--7-7-7-7-------------------------------------------|
D|------------------------------------------------------------|

Verse 1 Guitar 2  "Lie in the grass..."
e|------------------------------------------------------------|
B|------------------------------------------------------------|
G|------------------------------------------------------------|
D|-77-7-7h9-7------7h9-7--------------------------------------|
A|-55-5-5---5---7h9-----7-------------------------------------|
D|------------------------------------------------------------|
   ** 

Verse 1 Guitar 2 Continued
e|------------------------------------------------------------|
B|------------------------------------------------------------|
G|------------------------------------------------------------|
D|-7-7-7h9-7------7h9-7---------------------------------------|x3
A|-5-5-5---5---7h9-----7--------------------------------------|
D|------------------------------------------------------------|

Pre Chorus "Drop a heart..." (palm mute)
e|--------------------------------------------------------------------|
B|--------------------------------------------------------------------|
G|--------------------------------------------------------------------|
D|-000000-55555555-777777-99999999-101010101010-99999999-555555555555-|
A|-000000-55555555-777777-99999999-101010101010-99999999-555555555555-|
D|-000000-55555555-777777-99999999-101010101010-99999999-555555555555-|
   
Chorus
e|--------------------------------------------------------------------|
B|--------------------------------------------------------------------|
G|--------------------------------------------------------------------|
D|-0000000000000000-5555555555555555-999999999999999-5555555555555555-|
A|-0000000000000000-5555555555555555-999999999999999-5555555555555555-|
D|-0000000000000000-5555555555555555-999999999999999-5555555555555555-|

Chorus Continued
e|------------------------------------------------------------|
B|------------------------------------------------------------|
G|-----777-----777-----777-----777----------------------------|
D|-000-xxx-000-xxx-555-xxx-555-xxx----------------------------|
A|-000-555-000-555-555-555-555-555----------------------------|
D|-000-----000-----555-----555--------------------------------|

Chorus Continued
e|------------------------------------------------------------|
B|------------------------------------------------------------|
G|-----111111-----111111-----777-----777----------------------|
D|-999-x-x-x--999-x-x-x--555-xxx-555-xxx----------------------|
A|-999-9-9-9--999-9-9-9--555-555-555-555----------------------|
D|-999--------999--------555-----555--------------------------|

Pre Verse
e|------------------------------------------------------------|
B|------------------------------------------------------------|
G|------------------------------------------------------------|
D|-0000-0-00-555-555-55-55-7777-7-999-999-99-99-10101010-10---|
A|-0000-0-00-555-555-55-55-7777-7-999-999-99-99-10101010-10---|
D|-0000-0-00-555-555-55-55-7777-7-999-999-99-99-10101010-10---|
   ****   ** *** *** *  *  ****   *** *** *  *  ********

Pre Verse Continued
e|-------------------------------------------------------------|
B|-------------------------------------------------------------|
G|---------------------7~--------------------------------------|
D|-999-999-99-99---5~--7~--------------------------------------|
A|-999-999-99-99---5~--5~--------------------------------------|
D|-999-999-99-99---5~------------------------------------------|
   *** *** *  *

Verse 2 Guitar 1 "Is this more than..." (palm muted)
e|--------------------------------------------------------------|
B|--------------------------------------------------------------|
G|--------------------------------------------------------------|
D|-00000000-55555555-99999999-55555555--------------------------|x4
A|-00000000-55555555-99999999-55555555--------------------------|
D|-00000000-55555555-99999999-55555555--------------------------|

Verse 2 Guitar 2 "Isn't it messed up"
e|--------------------------------------------------------------|
B|--------------------------------------------------------------|
G|--7777-7-7--7-7-7-7-------------------------------------------|
D|--xxxx-x-x--x-x-x-x-------------------------------------------|x4
A|--5555-5-5--7-7-7-7-------------------------------------------|
E|--------------------------------------------------------------|

Pre Chorus "Drop a heart..." (palm mute)
e|--------------------------------------------------------------------|
B|--------------------------------------------------------------------|
G|--------------------------------------------------------------------|
D|-000000-55555555-777777-99999999-101010101010-99999999-555555555555-|
A|-000000-55555555-777777-99999999-101010101010-99999999-555555555555-|
D|-000000-55555555-777777-99999999-101010101010-99999999-555555555555-|


Chorus
e|--------------------------------------------------------------------|
B|--------------------------------------------------------------------|
G|--------------------------------------------------------------------|
D|-0000000000000000-5555555555555555-999999999999999-5555555555555555-|
A|-0000000000000000-5555555555555555-999999999999999-5555555555555555-|
D|-0000000000000000-5555555555555555-999999999999999-5555555555555555-|

Chorus Continued
e|------------------------------------------------------------|
B|------------------------------------------------------------|
G|-----777-----777-----777-----777----------------------------|
D|-000-xxx-000-xxx-555-xxx-555-xxx----------------------------|
A|-000-555-000-555-555-555-555-555----------------------------|
D|-000-----000-----555-----555--------------------------------|


Chorus Continued
e|------------------------------------------------------------|
B|------------------------------------------------------------|
G|-----111111-----111111-----777-----777----------------------|
D|-999-x-x-x--999-x-x-x--555-xxx-555-xxx----------------------|
A|-999-9-9-9--999-9-9-9--555-555-555-555----------------------|
D|-999--------999--------555-----555--------------------------|

Interlude Guitar 1
e|------------------------------------------------------------|
B|------------------------------------------------------------|
G|------------------------------------------------------------|
D|-5-222-0~-------5~--------0~--------5~-----------55---------|
A|-5-222-0~-------5~--------0~--------5~-----------55---------|
D|-5-222-0~-------5~--------0~--------5~-----------55---------|
* ***
Interlude Guitar 2
e|------------------------------------------------------------|
B|-777-555-888-555-77-55--------------------------------------|
G|-777-777-777-777-77-77--------------------------------------|
D|------------------------------------------------------------|x3
A|------------------------------------------------------------|
D|------------------------------------------------------------|

Interlude Continued Guitar 1 (palm muted)
e|--------------------------------------------------------------|
B|--------------------------------------------------------------|
G|--------------------------------------------------------------|
D|-00000-00000-55555-55555-99999-99999-55555-55555--------------|
A|-00000-00000-55555-55555-99999-99999-55555-55555--------------|
D|-00000-00000-55555-55555-99999-99999-55555-55555--------------|

Interlude Continued Guitar 2 
e|--------------------------------------------------------------|
B|--------------------------------------------------------------|
G|------6h7-6h7-7-----6h7-6h7-7---------------------------------|
D|-----7---7---7-----7---7---7----------------------------------|x4
A|--------------------------------------------------------------|
D|--------------------------------------------------------------|

Interlude Continued Guitar 1
e|--------------------------------------------------------------|
B|--------------------------------------------------------------|
G|--------------------------------------------------------------|
D|-0000000000000000-5555555555555555-9999999999999999-5---------|
A|-0000000000000000-5555555555555555-9999999999999999-5---------|
D|-0000000000000000-5555555555555555-9999999999999999-5---------|

Interlude Continued Guitar 2
e|--------------------------------------------------------------|
B|--------------------------------------------------------------|
G|------6h7-6h7-7-----6h7-6h7-7---------------------------------|
D|-----7---7---7-----7---7---7----------------------------------|x3
A|--------------------------------------------------------------|
D|--------------------------------------------------------------|

Interlude Continued Guitar 3
e|--------------------------------------------------------------|
B|-777-555-888-555-77-55----------------------------------------|
G|-777-777-777-777-77-77----------------------------------------|
D|--------------------------------------------------------------|x3
A|--------------------------------------------------------------|
D|--------------------------------------------------------------|

Outro Guitar 1
e|------------------|
B|------------------|
G|------------------|
D|-5-222-0~---------|
A|-5-222-0~---------|
D|-5-222-0~---------|


Outro Guitar 2 (fades out)


e|--------------------------------------------------------------|
B|-777-555-888-555-77-55----------------------------------------|
G|-777-777-777-777-77-77----------------------------------------|
D|--------------------------------------------------------------|x2
A|--------------------------------------------------------------|
D|--------------------------------------------------------------|


this is 99.9% correct 
i tabbed both guitars,and its pretty self explanatory. 
listen to the song and follow along. have fun.

5. DANCE, DANCE
-----------------------------------------------------------------

Tuning: Drop D
Guitar 1 – Distortion
Guitar 2 – Distortion

 _________________
|Intro (0:04-0:19)|
|_________________|

(Bass)

She says she's no good, with words but I'm worst. Barely stuttered out
"A joke of a romanic," or just stuck to my tongue.
 _________________
|Verse (0:20-0:28)|
|_________________|

Guitar 1
e| |---------------------------------|---------------------------------|
B| |---------------------------------|---------------------------------|
G| |---------------------------------|---------------------------------|
D| |11-9--11-9--12--11-9--11-9--12---|11-9--11-9--12--11-9--11-9--12---|
A| |-----9-----9---9-----9-----9---9-|-----9-----9---9-----9-----9---9-|
D| |---------------------------------|---------------------------------|
     * * * * * * * * * * * * * * * * | * * * * * * * * * * * * * * * *
       Weighed down  over-dramatic      Tonight it's   "No one should 
       with words too       	        "It cannot get  ever feel like..."
                                        much worse" vs.  
 
 ______________________
|Pre-Chorus (0:29-0:38)|
|______________________|

Guitar 1
e| |---------------------------------|---------------------------------|
B| |---------------------------------|---------------------------------|
G| |---------------------------------|---------------------------------|
D| |-----0-0-4-4-2-4------0-0-4-4-2-4|-----0-0-4-4-2-4------0-0-4-4-2-4|
A| |-2-4--------------2-4------------|-2-4--------------2-4------------|
D| |---------------------------------|---------------------------------|
     I'm two quarters And I don't want These words are  So you need them
     and a heart down to forget how    all I have so    just to get by
                      yourvoice sounds I'll write them

Guitar 1
e| |----------------|
B| |----------------|
G| |----------------|
D| |11-9--11-9--12--|
A| |-----9-----9---9|
D| |----------------|
     * * *

 __________________
|Chorus (0:39-0:55)|
|__________________|

Guitar 1
e| |---------------------------------|---------------------------------|
B| |o--------------------------------|--------------------------------o|
G| |---------7-7-7-7-------------2-2-|---------7-7-7-7-------------2-2-|
D| |-9-9-9-9-7-7-7-7-5-5-5-5-4-4-2-2-|-9-9-9-9-7-7-7-7-5-5-5-5-4-4-2-2-|
A| |o9-9-9-9-5-5-5-5-5-5-5-5-4-4-0-0-|-9-9-9-9-5-5-5-5-5-5-5-5-4-4-0-0o|
D| |-9-9-9-9---------5-5-5-5-4-4-----|-9-9-9-9---------5-5-5-5-4-4-----|
  1.    Dance, Dance We're falling        Dance, Dance And these are   |
                     apart to have time                the lives you   |
                                                       love to live    |
                                                                       |
  2.    Dance This is the way they'd      How misery loved me          |
              love to live if they knew                                |

                                                                       |
Guitar 2                                                               |
e| |---------------------------------|---------------------------------|
B| |o--------------------------------|--------------------------------o|
G| |-4-4-4-4-7-7-7-7121212121111-9-9-|-4-4-4-4-7-7-7-7121212121111-9-9-|
D| |-x-x-x-x-x-x-x-x-x-x-x-x-x-x-x-x-|-x-x-x-x-x-x-x-x-x-x-x-x-x-x-x-x-|
A| |o2-2-2-2-5-5-5-510101010-9-9-7-7-|-2-2-2-2-5-5-5-510101010-9-9-7-7o|
D| |---------------------------------|---------------------------------|

 _________________
|Verse (0:56-1:12)|
|_________________|

Guitar 1
e| |---------------------------------|---------------------------------|
B| |---------------------------------|---------------------------------|
G| |---------------------------------|---------------------------------|
D| |11-9--11-9--12--11-9--11-9--12---|11-9--11-9--12--11-9--11-9--12---|
A| |-----9-----9---9-----9-----9---9-|-----9-----9---9-----9-----9---9-|
D| |---------------------------------|---------------------------------|
     * * * * * * * * * * * * * * * *   * * * * * * * * * * * * * * * * |
                                                                       |
Guitar 2                                                               |
e| |---------------------------------|---------------------------------|
B| |---------------------------------|---------------------------------|
G| |-------7~----/-\-------7-----/-\-|-------7-----/-\---------7---/-\-|
D| |-------x---------------x---------|-------x-----------------x-------|
A| |-------5~----/-\-------5-----/-\-|-------5-----/-\---------5---/-\-|
D| |---------------------------------|---------------------------------|

Guitar 1
e| |---------------------------------|---------------------------------|
B| |---------------------------------|---------------------------------|
G| |---------------------------------|---------------------------------|
D| |-9-------------911-9--11-9--12---|11-9--11-9--12--11-9--11-9--12---|
A| |---------------------9-----9---9-|-----9-----9---9-----9-----9---9-|
D| |---------------------------------|---------------------------------|
                     * * * * * * * *   * * * * * * * * * * * * * * * * |
      You always   before you're      Drink up its last  but only the  |
      fold just    found out          call, last resort, first mistake |
                                                                       |
Guitar 2                                                               |
e| |---------------------------------|---------------------------------|
B| |---------------------------------|---------------------------------|
G| |-4-------------4-------7-----/-\-|-------7-----/-\-------7-----/-\-|
D| |-x-------------x-------x---------|-------x-----/-\-------x-----/-\-|
A| |-2-------------2-------5-----/-\-|-------5-----/-\-------5-----/-\-|
D| |---------------------------------|---------------------------------|

 ______________________
|Pre-Chorus (1:13-1:29)|
|______________________|

Guitar 1
e| |---------------------------------|---------------------------------|
B| |---------------------------------|---------------------------------|
G| |---------------------------------|---------------------------------|
D| |-----0-0-4-4-2-4------0-0-4-4-2-4|-----0-0-4-4-2-4------0-0-4-4-2-4|
A| |-2-4--------------2-4------------|-2-4--------------2-4------------|
D| |---------------------------------|---------------------------------|
     I'm two quarters And I don't want These words are  So you need them
     and a heart down to forget how    all I have so    just to get by
                      yourvoice sounds I'll write them

(Bass and Drums)
Why don't you show me the little bit of spine 
you've been saving for his mattress, love.

Guitar 1
e| |----------------|
B| |----------------|
G| |----------------|
D| |-9-9-----9-9-9-9|
A| |-9-9-----9-9-9-9|
D| |-9-9-----9-9-9-9|
     * *     * * *

 __________________
|Chorus (1:30-1:46)|
|__________________|

Guitar 1
e| |---------------------------------|---------------------------------|
B| |o--------------------------------|--------------------------------o|
G| |---------7-7-7-7-------------2-2-|---------7-7-7-7-------------2-2-|
D| |-9-9-9-9-7-7-7-7-5-5-5-5-4-4-2-2-|-9-9-9-9-7-7-7-7-5-5-5-5-4-4-2-2-|
A| |o9-9-9-9-5-5-5-5-5-5-5-5-4-4-0-0-|-9-9-9-9-5-5-5-5-5-5-5-5-4-4-0-0o|
D| |-9-9-9-9---------5-5-5-5-4-4-----|-9-9-9-9---------5-5-5-5-4-4-----|
  1.    Dance, Dance We're falling        Dance, Dance And these are   |
                     apart to have time                the lives you   |
                                                       love to live    |
                                                                       |
  2.    Dance This is the way they'd      How misery loved me          |
              love to live if they knew                                |
                                                                       |
Guitar 2                                                               |
e| |---------------------------------|---------------------------------|
B| |o--------------------------------|--------------------------------o|
G| |-4-4-4-4-7-7-7-7121212121111-9-9-|-4-4-4-4-7-7-7-7121212121111-9-9-|
D| |-x-x-x-x-x-x-x-x-x-x-x-x-x-x-x-x-|-x-x-x-x-x-x-x-x-x-x-x-x-x-x-x-x-|
A| |o2-2-2-2-5-5-5-510101010-9-9-7-7-|-2-2-2-2-5-5-5-510101010-9-9-7-7o|
D| |---------------------------------|---------------------------------|


 __________________
|Bridge (1:47-2:14)|
|__________________|

Guitar 1
e| |---------------------------------|---------------------------------|
B| |---------------------------------|---------------------------------|
G| |-4-4-4-4-4-4-4-4-6-6-6-6-6-6-6-6-|-7-7-7-7-7-7-7-7-7-91111-11b-11b-|
D| |-x-x-x-x-x-x-x-x-x-x-x-x-x-x-x-x-|-x-x-x-x-x-x-x-x-x-x-x-x---------|
A| |-2-2-2-2-2-2-2-2-4-4-4-4-4-4-4-4-|-5-5-5-5-5-5-5-5-5-7-9-9---------|
D| |---------------------------------|---------------------------------|
                                                                       |
Guitar 2                                                               |
e| |---------------------------------|---------------------------------|
B| |---------------------------------|---------------------------------|
G| |-4-4-4-4-4-4-4-4-6-6-6-6-6-6-6-6-|-7-7-7-7-7-7-7-7-9-9-9-911111111-|
D| |-4-4-4-4-4-4-4-4-7-7-7-7-7-7-7-7-|-7-7-7-7-7-7-7-7-9-9-9-911111111-|
A| |-2-2-2-2-2-2-2-2-4-4-4-4-4-4-4-4-|-5-5-5-5-5-5-5-5-7-7-7-7-9-9-9-9-|
D| |---------------------------------|---------------------------------|

Guitar 1
e| |---------------------------------|---------------------------------|
B| |---------------------------------|---------------------------------|
G| |-4-4-4-4-4-4-4-4-6-6-6-6-6-6-6-6-|-7-7-7-7-7-7-7-7-7-7-7-7-9-9-9-9-|
D| |-x-x-x-x-x-x-x-x-x-x-x-x-x-x-x-x-|-x-x-x-x-x-x-x-x-x-x-x-x-x-x-x-x-|
A| |-2-2-2-2-2-2-2-2-4-4-4-4-4-4-4-4-|-5-5-5-5-5-5-5-5-5-5-5-5-7-7-7-7-|
D| |---------------------------------|---------------------------------|
     Why don't you   little bit of     you've been    (mattress)       |
     show me         spine             saving for             (mattress)
                                       his mattress                    |
Guitar 2                                                               |
e| |---------------------------------|---------------------------------|
B| |---------------------------------|---------------------------------|
G| |-4-4-4-4-4-4-4-4-6-6-6-6-6-6-6-6-|-7-7-7-7-7-7-7-7-9-9-9-911111111-|
D| |-4-4-4-4-4-4-4-4-7-7-7-7-7-7-7-7-|-7-7-7-7-7-7-7-7-9-9-9-911111111-|
A| |-2-2-2-2-2-2-2-2-4-4-4-4-4-4-4-4-|-5-5-5-5-5-5-5-5-7-7-7-7-9-9-9-9-|
D| |---------------------------------|---------------------------------|

Guitar 1
e| |---------------------------------|---------------------------------|
B| |---------------------------------|---------------------------------|
G| |-4-4-4-4-4-4-4-4-6-6-6-6-6-6-6-6-|-7-7-9-9111116161515161618182121-|
D| |-x-x-x-x-x-x-x-x-x-x-x-x-x-x-x-x-|-x-x-x-x-x-x-x-x-x-x-x-x-x-x-x-x-|
A| |-2-2-2-2-2-2-2-2-4-4-4-4-4-4-4-4-|-5-5-7-7-9-914141313141416161919-|
D| |---------------------------------|---------------------------------|
     I only want     in the form of    crawling into bed with me       |
     sympathy        you                                               |

                                                                       |
Guitar 2                                                               |
e| |---------------------------------|---------------------------------|
B| |---------------------------------|---------------------------------|
G| |-4-4-4-4-4-4-4-4-6-6-6-6-6-6-6-6-|-7-7-7-7-7-7-7-7-7-7-7-7-7-7-----|
D| |-4-4-4-4-4-4-4-4-7-7-7-7-7-7-7-7-|-7-7-7-7-7-7-7-7-7-7-7-7-7-7-----|
A| |-2-2-2-2-2-2-2-2-4-4-4-4-4-4-4-4-|-5-5-5-5-5-5-5-5-5-5-5-5-5-5-----|
D| |---------------------------------|---------------------------------|

Guitar 1
e| |---------------------------------|---------------------------------|
B| |---------------------------------|---------------------------------|
G| |11111111111111111111111111111111-|11111111-11b~--------------------|
D| |-x-x-x-x-x-x-x-x-x-x-x-x-x-x-x-x-|-x-x-x-x--x----------------------|
A| |-9-9-9-9-9-9-9-9-9-9-9-9-9-9-9-9-|-9-9-9-9--9b~--------------------|
D| |---------------------------------|---------------------------------|
                                                                       |
Guitar 2                                                               |
e| |---------------------------------|---------------------------------|
B| |---------------------------------|---------------------------------|
G| |---------------------------------|-----------------4-4-4---4---4-4-|
D| |---------------------------------|-----------------4-4-4---4---4-4-|
A| |21-21-21-21-21-21-21-21-21-21-21-|21-21-21-21b~----2-2-2---2---2-2-|
D| |---------------------------------|---------------------------------|
                                                       * * *   *   * *
 __________________
|Chorus (2:15-2:40)|
|__________________|

Guitar 1
e| |---------------------------------|---------------------------------|
B| |o--------------------------------|--------------------------------o|
G| |---------7-7-7-7-------------2-2-|---------7-7-7-7-------------2-2-|
D| |-9-9-9-9-7-7-7-7-5-5-5-5-4-4-2-2-|-9-9-9-9-7-7-7-7-5-5-5-5-4-4-2-2-|
A| |o9-9-9-9-5-5-5-5-5-5-5-5-4-4-0-0-|-9-9-9-9-5-5-5-5-5-5-5-5-4-4-0-0o|
D| |-9-9-9-9---------5-5-5-5-4-4-----|-9-9-9-9---------5-5-5-5-4-4-----|
  1.    Dance, Dance We're falling        Dance, Dance And these are   |
                     apart to have time                the lives you   |
                                                       love to live    |
                                                                       |
  2.    Dance This is the way they'd      Dance This is the way they'd |
              love                              love (they'd love)     |
              (if they knew)                    (if they knew)         |
                                                                       |
Guitar 2                                                               |
e| |---------------------------------|---------------------------------|
B| |o--------------------------------|--------------------------------o|
G| |-4-4-4-4-7-7-7-7121212121111-9-9-|-4-4-4-4-7-7-7-7121212121111-9-9-|
D| |-x-x-x-x-x-x-x-x-x-x-x-x-x-x-x-x-|-x-x-x-x-x-x-x-x-x-x-x-x-x-x-x-x-|
A| |o2-2-2-2-5-5-5-510101010-9-9-7-7-|-2-2-2-2-5-5-5-510101010-9-9-7-7o|
D| |---------------------------------|---------------------------------|

Guitar 1
e| |---------------------------------|---------------------------------|
B| |---------------------------------|---------------------------------|
G| |---------7-7-7-7-------------2-2-|---------7-7-7-7-------------2-2-|
D| |-9-9-9-9-7-7-7-7-5-5-5-5-4-4-2-2-|-9-9-9-9-7-7-7-7-5-5-5-5-4-4-2-2-|
A| |-9-9-9-9-5-5-5-5-5-5-5-5-4-4-0-0-|-9-9-9-9-5-5-5-5-5-5-5-5-4-4-0-0-|
D| |-9-9-9-9---------5-5-5-5-4-4-----|-9-9-9-9---------5-5-5-5-4-4-----|
  3.    Dance This is the way they'd      How misery loved me          |
              love if they knew                                        |
                                                                       |
Guitar 2                                                               |
e| |---------------------------------|---------------------------------|
B| |---------------------------------|---------------------------------|
G| |-4-4-4-4-7-7-7-7121212121111-9-9-|-4-4-4-4-7-7-7-7121212121111-9-9-|
D| |-x-x-x-x-x-x-x-x-x-x-x-x-x-x-x-x-|-x-x-x-x-x-x-x-x-x-x-x-x-x-x-x-x-|
A| |-2-2-2-2-5-5-5-510101010-9-9-7-7-|-2-2-2-2-5-5-5-510101010-9-9-7-7-|
D| |---------------------------------|---------------------------------|

 _________________
|Outro (2:41-3:00)|
|_________________|

Guitar 1 & 2

e| |(0)~~----------------------------|---------------------------------|
B| |-0~~~----------------------------|---------------------------------|
G| |-0~~~----------------------------|---------------------------------|
D| |-0~~~----------------------------|---------------------------------|
A| |-0~~~----------------------------|---------------------------------|
D| |-0~~~----------------------------|---------------------------------|

Guitar 1
e| |---------------------------------|---------------------------------|
B| |---------------------------------|---------------------------------|
G| |---------------------------------|---------------------------------|
D| |11-9--11-9--12--11-9--11-9--12---|11-9--11-9--12--11-9--11-9--12---|
A| |-----9-----9---9-----9-----9---9-|-----9-----9---9-----9-----9---9-|
D| |---------------------------------|---------------------------------|
     * * * * * * * * * * * * * * * *   * * * * * * * * * * * * * * * * |
         Dance, Dance    Dance, Dance      Dance, Dance    Dance, Dance|
                                                                       |
Guitar 2                                                               |
e| |---------------------------------|---------------------------------|
B| |---------------------------------|---------------------------------|
G| |---------------------------------|---------------------------------|
D| |-----0-0-4-4-2-4-----0-0-4-4-2-4-|-----0-0-4-4-2-4-----0-0-4-2-4---|
A| |-2-4-------------2-4-------------|-2-4-------------2-4-----------2-|
D| |---------------------------------|---------------------------------|

 ________
| Legend |
|________|

b   - Bend
*   - Palm Mute
(0) - Slightly Played
~   - Hold
x   - Mute

6. A LITTLE LESS SIXTEEN CANDLES, A LITTLE MORE TOUCH ME
------------------------------------------------------------------

Tuning: Drop D
Guitar 1 – Distortion
Guitar 2 – Distortion

 _________________
|Intro (0:00-0:15)|
|_________________|

Guitar 1 & 2
e| |--------|
B| |--------|
G| |-\------|
D| |(\)-----|
A| |-\------|
D| |-\------|


Guitar 1
e| |---------------------------------|---------------------------------|
B| |o--------------------------------|--------------------------------o|
G| |-7-011-9---9-9-9-7-011-9---9-9-9-|-7-011-9---9-9-912--11---9-\-7---|
D| |-x(0)x-x---x-x-x-x(0)x-x---x-x-x-|-x(0)x-x---x-x-x-x---x---x---x---|
A| |o5-0-9-7---7-7-7-5-0-9-7---7-7-7-|-5-0-9-7---7-7-710---9---7-\-5--o|
D| |--(0)-------------(0)------------|--(0)----------------------------|
  1.                                                                   |
  2.                                                             I con |
                                                                       |
Guitar 2                                                               |
e| |---------------------------------|---------------------------------|
B| |o--------------------------------|--------------------------------o|
G| |---------------------------------|---------------------------------|
D| |-0-0-4-5-5-5-5-5-5-5-7-9-9-9-9-9-|-4-4-4-5-5-5-5-5-5---5---5-5-5---|
A| |o0-0-4-5-5-5-5-5-5-5-7-9-9-9-9-9-|-4-4-4-5-5-5-5-5-5---5---5-5-5--o|
D| |-0-0-4-5-5-5-5-5-5-5-7-9-9-9-9-9-|-4-4-4-5-5-5-5-5-5---5---5-5-5---|

 _________________
|Verse (0:15-0:36)|
|_________________|

Guitar 1
e| |---------------------------------|---------------------------------|
B| |---------------------------------|---------------------------------|
G| |-7-7-7-7-7-7-7-7-9-9-9-9-9-9-9-9-|---------------------------------|
D| |-7-7-7-7-7-7-7-7-9-9-9-9-9-9-9-9-|-9-9-9-9-9-9-9-9-5-5-5-5-5-5-5-5-|
A| |-5-5-5-5-5-5-5-5-7-7-7-7-7-7-7-7-|-9-9-9-9-9-9-9-9-5-5-5-5-5-5-5-5-|
D| |---------------------------------|-9-9-9-9-9-9-9-9-5-5-5-5-5-5-5-5-|
     * * * * * * * * * * * * * * * *   * * * * * * * * * * * * * * * *
     -fess I'm just  Dropping "I'm     You're still          And I know
     messed up       sorrys" like      around

Guitar 1
e| |---------------------------------|---------------------------------|
B| |---------------------------------|---------------------------------|
G| |-7-7-7-7-7-7-7-7-9-9-9-9-9-9-9-9-|---------------------------------|
D| |-7-7-7-7-7-7-7-7-9-9-9-9-9-9-9-9-|-9-9-9-9-9-9-9-9-5-5-5-5-5-5-5-5-|
A| |-5-5-5-5-5-5-5-5-7-7-7-7-7-7-7-7-|-9-9-9-9-9-9-9-9-5-5-5-5-5-5-5-5-|
D| |---------------------------------|-9-9-9-9-9-9-9-9-5-5-5-5-5-5-5-5-|
     * * * * * * * * * * * * * * * *   * * * * * * * * * * * * * * * * |
     you dressed up  "Hey kid, you'll  Live this down"                 |
                      never                                            |
                                                                       |
Guitar 2                                                               |
e| |---------------------------------|---------------------------------|
B| |---------------------------------|---------------------------------|
G| |---------------------------------|-------------------------------7-|
D| |---------------------------------|-------------------------------x-|
A| |---------------------------------|-------------------------------5-|
D| |---------------------------------|---------------------------------|


Guitar 1
e| |---------------------------------|---------------------------------|
B| |---------------------------------|---------------------------------|
G| |-7-7-7-7-7-7-7-7-9-9-9-9-9-9-9-9-|---------------------------------|
D| |-7-7-7-7-7-7-7-7-9-9-9-9-9-9-9-9-|-9-9-9-9-9-9-9-9-5-5-5-5-5-5-5-5-|
A| |-5-5-5-5-5-5-5-5-7-7-7-7-7-7-7-7-|-9-9-9-9-9-9-9-9-5-5-5-5-5-5-5-5-|
D| |---------------------------------|-9-9-9-9-9-9-9-9-5-5-5-5-5-5-5-5-|
     * * * * * * * * * * * * * * * *   * * * * * * * * * * * * * * * * |
     You're just the Boys want to      I'm just the   Too many chances |
     girl all the    dance with and    boy whose had                   |
                                                                       |
Guitar 2                                                               |
e| |---------------------------------|---------------------------------|
B| |---------------------------------|---------------------------------|
G| |---------------------------------|---------------------------7---7-|
D| |---------------------------------|---------------------------x---x-|
A| |---------------------------------|---------------------------5---5-|
D| |---------------------------------|---------------------------------|

 ______________________
|Pre-Chorus (0:36-0:43)|
|______________________|

Guitar 1
e| |---------------------------------|---------------------------------|
B| |---------------------------------|---------------------------------|
G| |---------------------------------|---------------------------------|
D| |-5-5-5-5-5-5-5-5-9-9-9-9-9-9-9-9-|-5-5-5-5-5-5-5-5-5-5-5-5-5-5-5-5-|
A| |-5-5-5-5-5-5-5-5-9-9-9-9-9-9-9-9-|-5-5-5-5-5-5-5-5-5-5-5-5-5-5-5-5-|
D| |-5-5-5-5-5-5-5-5-9-9-9-9-9-9-9-9-|-5-5-5-5-5-5-5-5-5-5-5-5-5-5-5-5-|
                                                         * * *
     I'm sleeping on Porch again,      She said, she said, she said,
     your folk's     dreaming          "Why don't you just drop dead"
 __________________
|Chorus (0:44-0:58)|
|__________________|

Guitar 1
e| |---------------------------------|---------------------------------|
B| |---------------------------------|---------------------------------|
G| |---------------------------------|---------------------------------|
D| |-0-0-4-5-5-5-5-5-5-5-7-9-9-9-9-9-|-4-4-4-5-5-5-5-5-9---7---5-5-5---|
A| |-0-0-4-5-5-5-5-5-5-5-7-9-9-9-9-9-|-4-4-4-5-5-5-5-5-9---7---5-5-5---|
D| |-0-0-4-5-5-5-5-5-5-5-7-9-9-9-9-9-|-4-4-4-5-5-5-5-5-9---7---5-5-5---|
     I don't blame you, for being you  But you can't   Hating it       |
                                       blame me for                    |
                                                                       |
Guitar 2                                                               |
e| |10--10--10--10--10--10--10--10---|10--10--10--10--10--10--10--10---|
B| |--10--10--10--10--10--10--10--10-|--10--10--10--10--10--10--10--10-|
G| |---------------------------------|---------------------------------|
D| |---------------------------------|---------------------------------|
A| |---------------------------------|---------------------------------|
D| |---------------------------------|---------------------------------|

Guitar 1
e| |---------------------------------|---------------------------------|
B| |---------------------------------|---------------------------------|
G| |---------------------------------|---------------------------------|
D| |-0-0-4-5-5-5-5-5-5-5-7-9-9-9-9-9-|-4-4-4-5-5-5-5-5-5---------------|
A| |-0-0-4-5-5-5-5-5-5-5-7-9-9-9-9-9-|-4-4-4-5-5-5-5-5-5---------------|
D| |-0-0-4-5-5-5-5-5-5-5-7-9-9-9-9-9-|-4-4-4-5-5-5-5-5-5---------------|
     So say, what are  Kiss her,       I set my clocks Know I'm always |
     you waiting for?  kiss her        early 'cause I  late            |
                                                                       |
Guitar 2                                                               |
e| |10--10--10--10--10--10--10--10---|10--10--10--10--10---------------|
B| |--10--10--10--10--10--10--10--10-|--10--10--10--10-----------------|
G| |---------------------------------|---------------------------------|
D| |---------------------------------|---------------------------------|
A| |---------------------------------|---------------------------------|
D| |---------------------------------|---------------------------------|

 _____________________
|Interlude (0:58-1:05)|
|_____________________|

Guitar 1
e| |---------------------------------|---------------------------------|
B| |o--------------------------------|--------------------------------o|
G| |-7-011-9---9-9-9-7-011-9---9-9-9-|-7-011-9---9-9-912--11---9-\-7---|
D| |-x(0)x-x---x-x-x-x(0)x-x---x-x-x-|-x(0)x-x---x-x-x-x---x---x---x---|
A| |o5-0-9-7---7-7-7-5-0-9-7---7-7-7-|-5-0-9-7---7-7-710---9---7-\-5--o|
D| |--(0)-------------(0)------------|--(0)----------------------------|
                                                           Write me up |
                                                                       |
Guitar 2                                                               |
e| |---------------------------------|---------------------------------|
B| |---------------------------------|---------------------------------|
G| |---------------------------------|---------------------------------|
D| |-0-0-4-5-5-5-5-5-5-5-7-9-9-9-9-9-|-4-4-4-5-5-5-5-5-5---5---5-5-5---|
A| |-0-0-4-5-5-5-5-5-5-5-7-9-9-9-9-9-|-4-4-4-5-5-5-5-5-5---5---5-5-5---|
D| |-0-0-4-5-5-5-5-5-5-5-7-9-9-9-9-9-|-4-4-4-5-5-5-5-5-5---5---5-5-5---|

 _________________
|Verse (1:05-1:27)|
|_________________|

Guitar 1
e| |---------------------------------|---------------------------------|
B| |o--------------------------------|--------------------------------o|
G| |-7-7-7-7-7-7-7-7-9-9-9-9-9-9-9-9-|---------------------------------|
D| |-7-7-7-7-7-7-7-7-9-9-9-9-9-9-9-9-|-9-9-9-9-9-9-9-9-5-5-5-5-5-5-5-5-|
A| |o5-5-5-5-5-5-5-5-7-7-7-7-7-7-7-7-|-9-9-9-9-9-9-9-9-5-5-5-5-5-5-5-5o|
D| |---------------------------------|-9-9-9-9-9-9-9-9-5-5-5-5-5-5-5-5-|
     * * * * * * * * * * * * * * * *   * * * * * * * * * * * * * * * * |
  1. Give up on me   'Cause darling    You expect         I'm just off |
                     what do                                           |
  2. A long cause,   A long shot       Take this bet           You can |
                     don't even                                        |
                                                                       |
Guitar 2                                                               |
e| |---------------------------------|---------------------------------|
B| |o--------------------------------|--------------------------------o|
G| |---------------------------------|---------------------------7---7-|
D| |---------------------------------|---------------------------x---x-|
A| |o--------------------------------|---------------------------5---5o|
D| |---------------------------------|---------------------------------|

Guitar 1
e| |---------------------------------|---------------------------------|
B| |---------------------------------|---------------------------------|
G| |---------------------------------|---------------------------------|
D| |-0-0---0-0-0---0-2-2---2-2-2---2-|-4-4---4-4-4---4-5-5---5-5-5-5-5-|
A| |-0-0---0-0-0---0-2-2---2-2-2---2-|-4-4---4-4-4---4-5-5---5-5-5-5-5-|
D| |-0-0---0-0-0---0-2-2---2-2-2---2-|-4-4---4-4-4---4-5-5---5-5-5-5-5-|
     Make all the    You can aim all   Get all the sighs and           |
     moves,          the spotlights    the moans just right            |
                                                                       |
Guitar 2                                                               |
e| |---------------------------------|---------------------------------|
B| |---------------------------------|---------------------------------|
G| |-7-7---7-7-7---7-7-7---7-7-7---7-|-7-7---7-7-7---7-7-7---7-7-7-7-7-|
D| |-x-x---x-x-x---x-x-x---x-x-x---x-|-x-x---x-x-x---x-x-x---x-x-x-x-x-|
A| |-5-5---5-5-5---5-5-5---5-5-5---5-|-5-5---5-5-5---5-5-5---5-5-5-5-5-|
D| |---------------------------------|---------------------------------|

 ______________________
|Pre-Chorus (1:27-1:34)|
|______________________|

Guitar 1
e| |---------------------------------|---------------------------------|
B| |---------------------------------|---------------------------------|
G| |---------------------------------|-------------------------------\-|
D| |-5-5-5-5-5-5-5-5-9-9-9-9-9-9-9-9-|-5-5-5-5-5-5-5-5-5------------(\)|
A| |-5-5-5-5-5-5-5-5-9-9-9-9-9-9-9-9-|-5-5-5-5-5-5-5-5-5-------------\-|
D| |-5-5-5-5-5-5-5-5-9-9-9-9-9-9-9-9-|-5-5-5-5-5-5-5-5-5------------(\)|
     I'm sleeping on Porch again,      She said, she said, she said,
     your folk's     dreaming          "Why don't you just drop dead"


 __________________
|Chorus (1:34-1:48)|
|__________________|

Guitar 1
e| |---------------------------------|---------------------------------|
B| |---------------------------------|---------------------------------|
G| |---------------------------------|---------------------------------|
D| |-0-0-4-5-5-5-5-5-5-5-7-9-9-9-9-9-|-4-4-4-5-5-5-5-5-9---7---5-5-5---|
A| |-0-0-4-5-5-5-5-5-5-5-7-9-9-9-9-9-|-4-4-4-5-5-5-5-5-9---7---5-5-5---|
D| |-0-0-4-5-5-5-5-5-5-5-7-9-9-9-9-9-|-4-4-4-5-5-5-5-5-9---7---5-5-5---|
     I don't blame you, for being you  But you can't   Hating it       |
                                       blame me for                    |
                                                                       |
Guitar 2                                                               |
e| |10--10--10--10--10--10--10--10---|10--10--10--10--10--10--10--10---|
B| |--10--10--10--10--10--10--10--10-|--10--10--10--10--10--10--10--10-|
G| |---------------------------------|---------------------------------|
D| |---------------------------------|---------------------------------|
A| |---------------------------------|---------------------------------|
D| |---------------------------------|---------------------------------|

Guitar 1
e| |---------------------------------|---------------------------------|
B| |---------------------------------|---------------------------------|
G| |---------------------------------|---------------------------------|
D| |-0-0-4-5-5-5-5-5-5-5-7-9-9-9-9-9-|-4-4-4-5-5-5-5-5-9---7---5-5-5---|
A| |-0-0-4-5-5-5-5-5-5-5-7-9-9-9-9-9-|-4-4-4-5-5-5-5-5-9---7---5-5-5---|
D| |-0-0-4-5-5-5-5-5-5-5-7-9-9-9-9-9-|-4-4-4-5-5-5-5-5-9---7---5-5-5---|
     So say, what are  Kiss her,       I set my clocks Know I'm always |
     you waiting for?  kiss her        early 'cause I  late            |
                                                                       |
Guitar 2                                                               |
e| |10--10--10--10--10--10--10--10---|10--10--10--10--10--10--10--10---|
B| |--10--10--10--10--10--10--10--10-|--10--10--10--10--10--10--10--10-|
G| |---------------------------------|---------------------------------|
D| |---------------------------------|---------------------------------|
A| |---------------------------------|---------------------------------|
D| |---------------------------------|---------------------------------|

 __________________
|Bridge (1:48-2:10)|
|__________________|

Guitar 1
e| |---------------------------------|---------------------------------|
B| |---------------------------------|---------------------2h3-----2h3-|
G| |-----2---------------------------|-----2---------------------------|
D| |-0-0---0-2-0-4-0-2-0-2-4-5-4-2-0-|-0-0---0-2-0-4-0-----------------|
A| |---------------------------------|---------------------------------|
D| |---------------------------------|---------------------------------|
     Always... Always on...            You said you'd keep me honest   |
                                                                       |
Guitar 2                                                               |
e| |---------------------------------|---------------------------------|
B| |---------------------------------|-----------------
Добавлено: 01.06.2012
Другие материалы по этой песне:
  • Аккорды и текст

Страница создана 01.06.2012
http://primanota.ru/fall-out-boy/believers-never-die-album-chords.htm
Привет, Гость.
Предлагаем пройти революционный курс по гитаре.
Подарок от PrimaNota.Ru, забирай!