PrimaNota.ru - самый крупный в мире бесплатный архив песенных текстов, аккордов, табулатур и нот


Fall Of Efrafa - Woundwort - таба, видео

Регистрация Запомнить меня
Войти через:  Facebook Google Twitter Vk Yandex Mail.ru

Fall Of Efrafa - Woundwort - таба, видео

Печатать
Просмотров: 393
Awesome song, especially the ending.  With Fall of Efrafa, a lot of emphasis is on 
the strumming.  Try to figure it out for yourself.
If someone can transfer this to guitar pro, that would be great.  i don't know how 
to use it very well...

Standard C Tuning

Intro: Clean
|----------------------------0------------|
|-----1---0-1------------1-----1----------|
|---2---2-----2--------2---2-----2--------|
|---------------2----3-------------3------|
|-0-------------0-------------------------|
|-----------------------------------------|


End Intro with:
|-0---
|-1---
|-2---
|-2---
|-0---
|-----



1:19 Fiddle with these chords, strum/pick whatever, clean:
|-0----0------
|-1----1------
|-2----2------
|-2----3------
|-0-----------
|-------------


2:44 x2 Try to figure out strumming, Dist.:
|-------------------------------------|
|-------------------------------------|
|-------------------------------------|
|-7--3------7--3--5--2----------------|
|-7--3------7--3--5--2----------------|
|-5--1------5--1--3--0----------------|


3:26 May not be 100%, but sounds ok.  Fiddle with this, Clean, reverb:
|---------------------------------------------------|
|---------------------------------------------------|
|---2--0--------2-----------2--0---------2------2---|
|--------2--------2---2----------2---------2------2-|
|-0--------3--0-----3---0-0--------3--0------3------|
|---------------------------------------------------|

|----------------------------------------------|
|----------------------------------------------|
|---2--0--------2-----------2--0---------------|
|--------2--------2---2----------2-------------|
|-0--------3--0-----3---0-0--------3--0--------|
|-------------------------------------------3--|



End with Dist. 5:08:
|---------------------|
|---------------------|
|---------------------|
|--5------------------|
|--5------------------|
|--3------------------|


5:09, figure out strumming, Dist. x4
|-----------------------------------------------|
|-----------------------------------------------|
|-----------------------------------------------|
|--7-----5--------------------------------------|
|--7-----5--------------------------------------|
|--5-----3--------------------------------------|


Guitar 2 5:29 Dist. x2 Figure out Strumming:
|---------------------------------|
|--10-----12--13------------------|
|---------------------------------|
|--7------9---10------------------|
|---------------------------------|
|---------------------------------|


5:48  x2
|--------------------------------|
|--------------------------------|
|--------------------------------|
|--3-----3-5-----2---------------|
|--3-----3-5-----2---------------|
|--1-----1-3-----0---------------|



6:07  x2  Figure out strumming:
|-----------------------------------------------|
|-----------------------------------------------|
|--------------5--------------------------------|
|-7--3--12--7--5--2--7--3--12--2--5-------------|
|-7--3--10--7--3--2--7--3--10--2--5-------------|
|-5--1--10--5-----0--5--1--10--0--3-------------|




7:26  x2:
|-------------------------------------|
|-------------------------------------|
|-------------------------------------|
|-7--3------7--3--5--2----------------|
|-7--3------7--3--5--2----------------|
|-5--1------5--1--3--0----------------|



from about 9:12-12:27 they mess with:
|-------------------------------------|
|-------------------------------------|
|--<9-/-/-/-5-------------------------|
|-------------------------------------|
|-------------------------------------|
|-------------------------------------|

and:
|-------------------------------------|
|--tr13--tr15--tr10--8----------------|
|-------------------------------------|
|-------------------------------------|
|-------------------------------------|
|-------------------------------------|


12:27 x3
|-----------------------|
|-----------------------|
|-----------------------|
|--7--3-----------------|
|--7--3-----------------|
|--5--1-----------------|

12:55 x1
|-------------------------------------|
|-------------------------------------|
|-------------------------------------|
|-7--3------7--3--5--2----------------|
|-7--3------7--3--5--2----------------|
|-5--1------5--1--3--0----------------|


13:04 x4
|-------------------------------|
|-------------------------------|
|-------------------------------|
|--3------5-----2---------------|
|--3------5-----2---------------|
|--1------3-----0---------------|



13:23 x2  with ^:
|--------------------------------|
|--10---13---8-------------------|
|--------------------------------|
|--7----10---5-------------------|
|--------------------------------|
|--------------------------------|


13:42 x2  Figure strumming:
|-----------------------------------------------|
|-----------------------------------------------|
|--------------5--------------------------------|
|-7--3--12--7--5--2--7--3--12--2--5-------------|
|-7--3--10--7--3--2--7--3--10--2--5-------------|
|-5--1--10--5-----0--5--1--10--0--3-------------|



15:04 badass headbanging part, outro x2, figure strumming:
|-----------------------------------------------|
|-----------------------------------------------|
|------------------5----------------------------|
|-7--5-3--12--7--5-5--2--7--5-3--12--2--5-------|
|-7--5-3--10--7--5-3--2--7--5-3--10--2--5-------|
|-5--3-1--10--5--3----0--5--3-1--10--0--3-------|
Добавлено: 24.04.2012
Вам также может быть интересно:
Другие материалы по этой песне:
  • Аккорды и текст

Страница создана 24.04.2012
http://primanota.ru/fall-of-efrafa/woundwort-chords.htm
Привет, Гость.
Предлагаем пройти революционный курс по гитаре.
Подарок от PrimaNota.Ru, забирай!