PrimaNota.ru - самый крупный в мире бесплатный архив песенных текстов, аккордов, табулатур и нот


Fall Of Efrafa - Pity The Weak - таба, видео

Регистрация Запомнить меня
Войти через:  Facebook Google Twitter Vk Yandex Mail.ru

Fall Of Efrafa - Pity The Weak - таба, видео

Печатать
Просмотров: 400
Авторы музыки: Fall of Efrafa
Авторы текста: Alex Bradshaw
Fall of Efrafa - Pity the Weak

Standard C Tuning




intro, with variation in amounts:
|--------------------------------------------------|
|--------------------------------------------------|
|---0-0---0-0---0-0---0-0----0-0---0-0---0-0---0-0-|
|--------------------------------------------------|
|-7-----7-----7-----7-----/7-----7-----7-----7-----|
|--------------------------------------------------|

|--------------------------------------------------|
|--------------------------------------------------|
|---0-0---0-0---0-0---0-0--------------------------|
|--------------------------------------------------|
|-5-----5-----3-----3------------------------------|
|--------------------------------------------------|

with this as fill:
|--------------------------------------------------|
|--------------------------------------------------|
|---0-0---0-0---0-0---0-0---0-0---0-0---0-0---0-0--|
|-------9-----9-----9-----------9-----9-----9------|
|-7-----------------------7------------------------|
|--------------------------------------------------|


0:45 x4 Figure out strumming:
|--------------------------------------------------|
|--------------------------------------------------|
|------9----7---5-7--9-----------------------------|
|-2----9----7---5-7--9-----------------------------|
|-2----7----5---3-5--7-----------------------------|
|-0----0-------------0-----------------------------|

with this as backing the first 3x's, still 0:45
|--------------------------------------------------|
|------12---10--8-10-12----------------------------|
|--------------------------------------------------|
|-2----9----7---5-7--9-----------------------------|
|-2------------------------------------------------|
|-0------------------------------------------------|

this backs the last time, x1 1:19:
|--------------------------------------------------|
|------8----7---5-7--8-----------------------------|
|--------------------------------------------------|
|-2----5----4---2-4--5-----------------------------|
|-2------------------------------------------------|
|-0------------------------------------------------|


1:31 x2:
|--------------------------------------------------|
|-------------8---7---10---8-----------------------|
|-7---9--5-----------------------------------------|
|-7---9--5----5---4---7----5-----------------------|
|-5---7--3-----------------------------------------|
|--------------------------------------------------|

with this, still 1:31 x2:
|--------------------------------------------------|
|-------------12--10--13---12----------------------|
|-7---9--5-----------------------------------------|
|-7---9--5----9---7---10---9-----------------------|
|-5---7--3-----------------------------------------|
|--------------------------------------------------|


1:53 x2:
|--------------------------------------------------|
|--------------------------------------------------|
|------9----7---5-7--9-----------------------------|
|-2----9----7---5-7--9-----------------------------|
|-2----7----5---3-5--7-----------------------------|
|-0----0-------------0-----------------------------|

this backs the 2nd time, x1 2:04:
|--------------------------------------------------|
|------8----7---5-7--8-----------------------------|
|--------------------------------------------------|
|-2----5----4---2-4--5-----------------------------|
|-2------------------------------------------------|
|-0------------------------------------------------|


2:15 x2:
|--------------------------------------------------|
|-------------8---7---10---8-----------------------|
|-7---9--5-----------------------------------------|
|-7---9--5----5---4---7----5-----------------------|
|-5---7--3-----------------------------------------|
|--------------------------------------------------|

with this, still 2:15 x2:
|--------------------------------------------------|
|-------------12--10--13---12----------------------|
|-7---9--5-----------------------------------------|
|-7---9--5----9---7---10---9-----------------------|
|-5---7--3-----------------------------------------|
|--------------------------------------------------|


2:40 x4:
|--------------------------------------------------|
|------8-8---------8-8-----------------------------|
|-------------------------7---5--(7)<----optional--|
|-2----5-5----2----5-5----7---5--(5)<----optional--|
|-2-----------2-----------5---3--(5)<----optional--|
|-0-----------0------------------------------------|

this backs the above at 3:00, x2:
|--------------------------------------------------|
|------12-12-------12-12--12-13--13--12--10--------|
|--------------------------------------------------|
|-2----9--9---2----9--9---9--10--10--9---8---------|
|-2-----------2------------------------------------|
|-0-----------0------------------------------------|


3:50 figure out strumming, x a bunch of times:
|--------------------------------------------------|
|-10--12--13---6----13--12-------------------------|
|--------------------------------------------------|
|-7---9---10---3----10--9--------------------------|
|--------------------------------------------------|
|--------------------------------------------------|


4:30 with the above, figure out strumming, x2:
|--------------------------------------------------|
|--------------------------------------------------|
|--------------------------------------------------|
|-7----5---2---3----5---2--------------------------|
|-7----5---2---3----5---2--------------------------|
|-5----3---0---1----3---0--------------------------|


4:50 with both aboves, x2:
|--------------------------------------------------|
|-13---15--17--10---17--15--15/17\15---------------|
|--------------------------------------------------|
|-10---12--14--7----14--12--12/14\12---------------|
|--------------------------------------------------|
|--------------------------------------------------|


5:09 fill:
|--------------------------------------------------|
|--10-----------17---------------------------------|
|--------------------------------------------------|
|--7------------14---------------------------------|
|--------------------------------------------------|
|--------------------------------------------------|


5:19 x2:
|--------------------------------------------------|
|--------------------------------------------------|
|------9----7---5-7--9-----------------------------|
|-2----9----7---5-7--9-----------------------------|
|-2----7----5---3-5--7-----------------------------|
|-0----0-------------0-----------------------------|

this backs the 2nd time, x1 5:30:
|--------------------------------------------------|
|------8----7---5-7--8-----------------------------|
|--------------------------------------------------|
|-2----5----4---2-4--5-----------------------------|
|-2------------------------------------------------|
|-0------------------------------------------------|


5:41 x2:
|--------------------------------------------------|
|-------------8---7---10---8-----------------------|
|-7---9--5-----------------------------------------|
|-7---9--5----5---4---7----5-----------------------|
|-5---7--3-----------------------------------------|
|--------------------------------------------------|

with this, still 5:41 x2:
|--------------------------------------------------|
|-------------12--10--13---12----------------------|
|-7---9--5-----------------------------------------|
|-7---9--5----9---7---10---9-----------------------|
|-5---7--3-----------------------------------------|
|--------------------------------------------------|


End with:
|--------------------------------------------------|
|-12--12--12--12-----------------------------------|
|--------------------------------------------------|
|-9---9---9---9----2-------------------------------|
|------------------2-------------------------------|
|------------------0-------------------------------|
Добавлено: 24.06.2012
Вам также может быть интересно:
Другие материалы по этой песне:

Страница создана 24.06.2012
http://primanota.ru/fall-of-efrafa/pity-the-weak-chords.htm
Привет, Гость.
Предлагаем пройти революционный курс по гитаре.
Подарок от PrimaNota.Ru, забирай!