PrimaNota.ru - самый крупный в мире бесплатный архив песенных текстов, аккордов, табулатур и нот


Falconer - Clarion Call - текст песни, таба, видео

Регистрация Запомнить меня
Войти через:  Facebook Google Twitter Vk Yandex Mail.ru

Falconer - Clarion Call - текст песни, таба, видео

Печатать
Просмотров: 172
Авторы музыки: Stefan Weinerhall
Авторы текста: Stefan Weinerhall
                               The Clarion Call   Falconer


Standard tuning.
Containing three guitar tracks.
Lead Guitar

     E        E  E  E  E  E  E  E     E  E  E  H         E
E||--------------------------------|-------------------------|
B||--------------------------------|-------------------------|
G||--------------------------------|-------------------------|
D||--------------------------------|-------------------------|
A||--------------1-----0--1--------|--1-----0--1~--------L~--|
E||--3--------3-----3--------3--3--|-----3-------------------|


  E  E  E  E  E  E  E  E     E  E  E  H         E      E  E  E  E  E  E  E  E
--------------------------|-------------------------|--------------------------|
--------------------------|-------------------------|--------------------------|
--------------------------|-------------------------|--------------------------|
--------------------------|-------------------------|--------------------------|
--------1-----0--1--------|--1-----0--1~--------L~--|--------5-----3--5--------|
--3--3-----3--------3--3--|-----3-------------------|--3--3-----3--------3--3--|


  E  E  E  Q     E  E  E     E  E  E  E  E  E  E  E
--------------------------|-----------------------3--|
--------------------------|--------------------------|
-----------------------3--|--------------------------|
-----------------3--5-----|--------5-----3--5--------|
--5-----3--5~-------------|--------------------------|
-----3--------------------|--3--3-----3--------3-----|


  E  E  E  E  S  S E  E  S  S    E  E  E  E  E  E  E  E
--L---------------------------|--------------------------|
-----6--3--6------------------|--------------------------|
--------------5p-3-2-----2h-3-|--------3-----2--3--------|
----------------------5-------|--------------------------|
------------------------------|--------------------------|
------------------------------|--3--3-----3--------3--3--|


  E  E  E  Q    E  S  S E     E  E  E  E  E  E  E  E
---------------------------|--------------------------|
---------------------------|-----------------------3--|
--3-----2--3----2-------2--|--------3-----2--3--------|
-------------------3h-5----|--------------------------|
---------------------------|--------------------------|
-----3---------------------|--3--3-----3--------3-----|


  E  E  E  E  E  E  S  S E     E  E    E  E  E  E  E  E
----------------------------|----------------------------|
--L-------------------------|-------------------------1--|
-----5--3--5--3--2-------2--|--------1g2-----0--2--------|
--------------------3h-5----|--3--3-------3--------3-----|
----------------------------|----------------------------|
----------------------------|----------------------------|


  E  E  E  E  E  E    E   S S    E  E  E  E  E  E  E    E
------------------------------|----------------------------|
--L--3--1---------------------|----------------------------|
-----------2--0-----0g2p--0---|--------2-----0--2-----5g7--|
-----------------3----------3-|--0--0-----0--------0-------|
------------------------------|----------------------------|
------------------------------|----------------------------|


  E  E  E  E  E  E  E  E     E  E  E  E  E  E  E  E
--------5--8--6--5--------|---------------------------|
-----7--------------8--7--|-----------7--8--6--8--L\--|
--L-----------------------|--------7------------------|
--------------------------|--5--8---------------------|
--------------------------|---------------------------|
--------------------------|---------------------------|


  E  E  E  E  E  E  E  E     E  E  E  Q    E  S  S E
--------------------------|---------------------------|
--------------------------|---------------------------|
--------3-----2--3--------|--3-----2--3----2-------2--|
--------------------------|-------------------3h-5----|
--------------------------|---------------------------|
--3--3-----3--------3--3--|-----3---------------------|


  E  E  E  E  E  E  E  E     E  E  E  E  E  E  S  S E
--------------------------|----------------------------|
-----------------------3--|--L-------------------------|
--------3-----2--3--------|-----5--3--5--3--2-------2--|
--------------------------|--------------------3h-5----|
--------------------------|----------------------------|
--3--3-----3--------3-----|----------------------------|


  E  E    E  E  E  E  E  E     E  E  E  E  E  E    E   S S
----------------------------|------------------------------|
-------------------------1--|--L--3--1---------------------|
--------1g2-----0--2--------|-----------2--0-----0g2p--0---|
--3--3-------3--------3-----|-----------------3----------3-|
----------------------------|------------------------------|
----------------------------|------------------------------|


  E  E  E  E  E  E  E    E     E  E  E  E  E  E  E  E
----------------------------|--------5--8--6--5--------|
----------------------------|-----7--------------8--7--|
--------2-----0--2-----5g7--|--L-----------------------|
--0--0-----0--------0-------|--------------------------|
----------------------------|--------------------------|
----------------------------|--------------------------|


                              PM PM PM PM PM PM PM PM
  E  E  E  E  E  E  E  E      S  S  S  S  S  S  S  S  S Q    E  S
---------------------------|--------------------------------------|
-----------7--8--6--8--L\--|--------------------------------------|
--------7------------------|--------------------------------------|
--5--8---------------------|--------------------------------------|
---------------------------|--------------------------5-----------|
---------------------------|--3--3--3--3--3--3--3--3--3-----------|


  PM PM PM PM PM PM PM PM
  S  S  S  S  S  S  S  S  S Q    E  S    W                   W
--------------------------------------|-------------------|-------------------|
--------------------------------------|-------------------|-------------------|
--------------------------------------|-------------------|-------------------|
--------------------------------------|-------------------|-------------------|
--------------------------5-----------|-------------------|-------------------|
--3--3--3--3--3--3--3--3--3-----------|-------------------|-------------------|


              |--3--|  |--3--|
    H         E  E  E  E  E  E     Q     E  Q    E  E  E
--------------------------------|-------------------------|
--------------------------------|-------------------------|
--------------------------------|-------------------------|
--5g8~-----------------------5--|--7~----8--7----5--------|
--------------------5--6--8-----|-------------------8--6--|
--------------6--8--------------|-------------------------|


            |--3--|
  H         E  E  E  Q          Q      E   Q     E  E   E
--------------------------|--------------------------------|
--------------------------|--------------------------------|
--------------------------|--------------------------------|
--------------------------|--7g10~----12--10~----7--8--10--|
--5~--------------5-------|--------------------------------|
------------6--8-----8----|--------------------------------|


  PM PM PM PM PM PM PM PM                PM PM PM PM PM PM PM PM
  S  S  S  S  S  S  S  S  S Q    E  S    S  S  S  S  S  S  S  S  S Q    E  S
--------------------------------------|--------------------------------------|
--------------------------------------|--------------------------------------|
--------------------------------------|--------------------------------------|
--------------------------------------|--------------------------------------|
--------------------------5-----------|--------------------------5-----------|
--3--3--3--3--3--3--3--3--3-----------|--3--3--3--3--3--3--3--3--3-----------|


  W                   W                   W                   W
-------------------|-------------------|-------------------|-------------------|
-------------------|-------------------|-------------------|-------------------|
-------------------|-------------------|-------------------|-------------------|
-------------------|-------------------|-------------------|-------------------|
-------------------|-------------------|-------------------|-------------------|
-------------------|-------------------|-------------------|-------------------|


  W                   W                   W                   W
-------------------|-------------------|-------------------|-------------------|
-------------------|-------------------|-------------------|-------------------|
-------------------|-------------------|-------------------|-------------------|
-------------------|-------------------|-------------------|-------------------|
-------------------|-------------------|-------------------|-------------------|
-------------------|-------------------|-------------------|-------------------|


                                         |--3--|
  W                     Q.       Q    E  S  S  S  E     Q.      Q.     Q
-------------------|---------------------------------|----------------------|
-------------------|---------------------------------|----------------------|
-------------------|---------------------------------|----------------------|
-------------------|--5g8~------------8--7h-8p-7-----|--7-------------------|
-------------------|------------10---------------10--|---------10------8----|
-------------------|---------------------------------|----------------------|


  Q.      Q.      Q        Q     Q     Q     Q
-----------------------|--------------------10----|
-----------------------|--------------10----------|
-----------------------|--------11----------------|
---------12------10----|--12----------------------|
--9--------------------|--------------------------|
-----------------------|--------------------------|


   PM PM PM PM PM PM PM PM                 PM PM PM PM PM PM PM PM
   S  S  S  S  S  S  S  S  S  Q    E  S    S  S  S  S  S  S  S  S  S Q    E  S
--15~-L--L--L--L--L--L-----L\-----------|--------------------------------------|
----------------------------------------|--------------------------------------|
----------------------------------------|--------------------------------------|
----------------------------------------|--------------------------------------|
---------------------------5------------|--------------------------5-----------|
---3--3--3--3--3--3--3--3--3------------|--3--3--3--3--3--3--3--3--3-----------|


                                                      |--3--|  |--3--|
  W                   W                     H         E  E  E  E  E  E
-------------------|-------------------|--------------------------------|
-------------------|-------------------|--------------------------------|
-------------------|-------------------|--------------------------------|
-------------------|-------------------|--5g8~-----------------------5--|
-------------------|-------------------|--------------------5--6--8-----|
-------------------|-------------------|--------------6--8--------------|


                                      |--3--|
  Q     E  Q    E  E  E     H         E  E  E  Q
-------------------------|--------------------------|
-------------------------|--------------------------|
-------------------------|--------------------------|
--7~----8--7----5--------|--------------------------|
-------------------8--6--|--5~--------------5-------|
-------------------------|------------6--8-----8----|


                                   PM PM PM PM PM PM PM PM
     Q      E   Q     E  E   E     S  S  S  S  S  S  S  S  S Q    E  S
--------------------------------|--------------------------------------|
--------------------------------|--------------------------------------|
--------------------------------|--------------------------------------|
--7g10~----12--10~----7--8--10--|--------------------------------------|
--------------------------------|--------------------------5-----------|
--------------------------------|--3--3--3--3--3--3--3--3--3-----------|


  PM PM PM PM PM PM PM PM
  S  S  S  S  S  S  S  S  S Q    E  S    W                   W
--------------------------------------|-------------------|-------------------|
--------------------------------------|-------------------|-------------------|
--------------------------------------|-------------------|-------------------|
--------------------------------------|-------------------|-------------------|
--------------------------5-----------|-------------------|-------------------|
--3--3--3--3--3--3--3--3--3-----------|-------------------|-------------------|


  W                   W                   W                   W
-------------------|-------------------|-------------------|-------------------|
-------------------|-------------------|-------------------|-------------------|
-------------------|-------------------|-------------------|-------------------|
-------------------|-------------------|-------------------|-------------------|
-------------------|-------------------|-------------------|-------------------|
-------------------|-------------------|-------------------|-------------------|


  W                   W                   W                   W
-------------------|-------------------|-------------------|-------------------|
-------------------|-------------------|-------------------|-------------------|
-------------------|-------------------|-------------------|-------------------|
-------------------|-------------------|-------------------|-------------------|
-------------------|-------------------|-------------------|-------------------|
-------------------|-------------------|-------------------|-------------------|


  W                   W                   W                   W
-------------------|-------------------|-------------------|-------------------|
-------------------|-------------------|-------------------|-------------------|
-------------------|-------------------|-------------------|-------------------|
-------------------|-------------------|-------------------|-------------------|
-------------------|-------------------|-------------------|-------------------|
-------------------|-------------------|-------------------|-------------------|


  W                   W                   W                   W
-------------------|-------------------|-------------------|-------------------|
-------------------|-------------------|-------------------|-------------------|
-------------------|-------------------|-------------------|-------------------|
-------------------|-------------------|-------------------|-------------------|
-------------------|-------------------|-------------------|-------------------|
-------------------|-------------------|-------------------|-------------------|


  W                   W                   W                   W
-------------------|-------------------|-------------------|-------------------|
-------------------|-------------------|-------------------|-------------------|
-------------------|-------------------|-------------------|-------------------|
-------------------|-------------------|-------------------|-------------------|
-------------------|-------------------|-------------------|-------------------|
-------------------|-------------------|-------------------|-------------------|


  E  E  E  E  E  E  E  E     E  E  E  Q    E  S  S E
--------------------------|---------------------------|
--------------------------|---------------------------|
--------3-----2--3--------|--3-----2--3----2-------2--|
--------------------------|-------------------3h-5----|
--------------------------|---------------------------|
--3--3-----3--------3--3--|-----3---------------------|


  E  E  E  E  E  E  E  E     E  E  E  E  E  E  S  S E
--------------------------|----------------------------|
-----------------------3--|--L-------------------------|
--------3-----2--3--------|-----5--3--5--3--2-------2--|
--------------------------|--------------------3h-5----|
--------------------------|----------------------------|
--3--3-----3--------3-----|----------------------------|


  E  E    E  E  E  E  E  E     E  E  E  E  E  E    E   S S
----------------------------|------------------------------|
-------------------------1--|--L--3--1---------------------|
--------1g2-----0--2--------|-----------2--0-----0g2p--0---|
--3--3-------3--------3-----|-----------------3----------3-|
----------------------------|------------------------------|
----------------------------|------------------------------|


  E  E  E  E  E  E  E    E     E  E  E  E  E  E  E  E
----------------------------|--------5--8--6--5--------|
----------------------------|-----7--------------8--7--|
--------2-----0--2-----5g7--|--L-----------------------|
--0--0-----0--------0-------|--------------------------|
----------------------------|--------------------------|
----------------------------|--------------------------|


  E  E  E  E  E  E  E  E      E  E  E  E  E  E  E  E
---------------------------|--------------------------|
-----------7--8--6--8--L\--|--------------------------|
--------7------------------|--------3-----2--3--------|
--5--8---------------------|--------------------------|
---------------------------|--------------------------|
---------------------------|--3--3-----3--------3--3--|


  E  E  E  Q    E  S  S E     E  E  E  E  E  E  E  E
---------------------------|--------------------------|
---------------------------|-----------------------3--|
--3-----2--3----2-------2--|--------3-----2--3--------|
-------------------3h-5----|--------------------------|
---------------------------|--------------------------|
-----3---------------------|--3--3-----3--------3-----|


  E  E  E  E  E  E  S  S E     E  E    E  E  E  E  E  E
----------------------------|----------------------------|
--L-------------------------|-------------------------1--|
-----5--3--5--3--2-------2--|--------1g2-----0--2--------|
--------------------3h-5----|--3--3-------3--------3-----|
----------------------------|----------------------------|
----------------------------|----------------------------|


  E  E  E  E  E  E    E   S S    E  E  E  E  E  E  E    E
------------------------------|----------------------------|
--L--3--1---------------------|----------------------------|
-----------2--0-----0g2p--0---|--------2-----0--2-----5g7--|
-----------------3----------3-|--0--0-----0--------0-------|
------------------------------|----------------------------|
------------------------------|----------------------------|


  E  E  E  E  E  E  E  E     E  E  E  E  E  E  E  E
--------5--8--6--5--------|---------------------------|
-----7--------------8--7--|-----------7--8--6--8--L\--|
--L-----------------------|--------7------------------|
--------------------------|--5--8---------------------|
--------------------------|---------------------------|
--------------------------|---------------------------|


  PM PM PM PM PM PM PM PM                PM PM PM PM PM PM PM PM
  S  S  S  S  S  S  S  S  S Q    E  S    S  S  S  S  S  S  S  S  S Q    E  S
--------------------------------------|--------------------------------------|
--------------------------------------|--------------------------------------|
--------------------------------------|--------------------------------------|
--------------------------------------|--------------------------------------|
--------------------------5-----------|--------------------------5-----------|
--3--3--3--3--3--3--3--3--3-----------|--3--3--3--3--3--3--3--3--3-----------|


                                                      |--3--|  |--3--|
  W                   W                     H         E  E  E  E  E  E
-------------------|-------------------|--------------------------------|
-------------------|-------------------|--------------------------------|
-------------------|-------------------|--------------------------------|
-------------------|-------------------|--5g8~-----------------------5--|
-------------------|-------------------|--------------------5--6--8-----|
-------------------|-------------------|--------------6--8--------------|


                                      |--3--|
  Q     E  Q    E  E  E     H         E  E  E  Q
-------------------------|--------------------------|
-------------------------|--------------------------|
-------------------------|--------------------------|
--7~----8--7----5--------|--------------------------|
-------------------8--6--|--5~--------------5-------|
-------------------------|------------6--8-----8----|


                                   PM PM PM PM PM PM PM PM
     Q      E   Q     E  E   E     S  S  S  S  S  S  S  S  S Q    E  S
--------------------------------|--------------------------------------|
--------------------------------|--------------------------------------|
--------------------------------|--------------------------------------|
--7g10~----12--10~----7--8--10--|--------------------------------------|
--------------------------------|--------------------------5-----------|
--------------------------------|--3--3--3--3--3--3--3--3--3-----------|


  PM PM PM PM PM PM PM PM
  S  S  S  S  S  S  S  S  S Q    E  S    W                   W
--------------------------------------|-------------------|-------------------|
--------------------------------------|-------------------|-------------------|
--------------------------------------|-------------------|-------------------|
--------------------------------------|-------------------|-------------------|
--------------------------5-----------|-------------------|-------------------|
--3--3--3--3--3--3--3--3--3-----------|-------------------|-------------------|


  W                   W                   W                   W
-------------------|-------------------|-------------------|-------------------|
-------------------|-------------------|-------------------|-------------------|
-------------------|-------------------|-------------------|-------------------|
-------------------|-------------------|-------------------|-------------------|
-------------------|-------------------|-------------------|-------------------|
-------------------|-------------------|-------------------|-------------------|


  W                   W                   W                   W
-------------------|-------------------|-------------------|-------------------|
-------------------|-------------------|-------------------|-------------------|
-------------------|-------------------|-------------------|-------------------|
-------------------|-------------------|-------------------|-------------------|
-------------------|-------------------|-------------------|-------------------|
-------------------|-------------------|-------------------|-------------------|


  W                   W                   W                   W
-------------------|-------------------|-------------------|-------------------|
-------------------|-------------------|-------------------|-------------------|
-------------------|-------------------|-------------------|-------------------|
-------------------|-------------------|-------------------|-------------------|
-------------------|-------------------|-------------------|-------------------|
-------------------|-------------------|-------------------|-------------------|


  W                   W                   W                   W
-------------------|-------------------|-------------------|-------------------|
-------------------|-------------------|-------------------|-------------------|
-------------------|-------------------|-------------------|-------------------|
-------------------|-------------------|-------------------|-------------------|
-------------------|-------------------|-------------------|-------------------|
-------------------|-------------------|-------------------|-------------------|


  W                   W                   W                   W
-------------------|-------------------|-------------------|-------------------|
-------------------|-------------------|-------------------|-------------------|
-------------------|-------------------|-------------------|-------------------|
-------------------|-------------------|-------------------|-------------------|
-------------------|-------------------|-------------------|-------------------|
-------------------|-------------------|-------------------|-------------------|


  H        Q       H        Q       H        Q       H        Q
----------------|----------------|----------------|----------------|
----------------|----------------|----------------|----------------|
----------------|----------------|----------------|----------------|
----------------|----------------|----------------|----------------|
----------------|----------------|----------------|----------------|
----------------|----------------|----------------|----------------|


  H        Q       H        Q       H        Q       H        Q
----------------|----------------|----------------|----------------|
----------------|----------------|----------------|----------------|
----------------|----------------|----------------|----------------|
----------------|----------------|----------------|----------------|
----------------|----------------|----------------|----------------|
----------------|----------------|----------------|----------------|


  H        Q       H        Q       H        Q       H        Q
----------------|----------------|----------------|----------------|
----------------|----------------|----------------|----------------|
----------------|----------------|----------------|----------------|
----------------|----------------|----------------|----------------|
----------------|----------------|----------------|----------------|
----------------|----------------|----------------|----------------|


  H        Q       H        Q       H        Q       H        Q
----------------|----------------|----------------|----------------|
----------------|----------------|----------------|----------------|
----------------|----------------|----------------|----------------|
----------------|----------------|----------------|----------------|
----------------|----------------|----------------|----------------|
----------------|----------------|----------------|----------------|


  H        Q       H        Q       H        Q       H        Q
----------------|----------------|----------------|----------------|
----------------|----------------|----------------|----------------|
----------------|----------------|----------------|----------------|
----------------|----------------|----------------|----------------|
----------------|----------------|----------------|----------------|
----------------|----------------|----------------|----------------|


  H        Q       H        Q       H        Q       H        Q
----------------|----------------|----------------|----------------|
----------------|----------------|----------------|----------------|
----------------|----------------|----------------|----------------|
----------------|----------------|----------------|----------------|
----------------|----------------|----------------|----------------|
----------------|----------------|----------------|----------------|


  H        Q       H        Q       H        Q       H        Q
----------------|----------------|----------------|----------------|
----------------|----------------|----------------|----------------|
----------------|----------------|----------------|----------------|
----------------|----------------|----------------|----------------|
----------------|----------------|----------------|----------------|
----------------|----------------|----------------|----------------|


  H        Q       H        Q       H        Q       H        Q
----------------|----------------|----------------|----------------|
----------------|----------------|----------------|----------------|
----------------|----------------|----------------|----------------|
----------------|----------------|----------------|----------------|
----------------|----------------|----------------|----------------|
----------------|----------------|----------------|----------------|


  H        Q       H        Q       H        Q       H        Q
----------------|----------------|----------------|----------------|
----------------|----------------|----------------|----------------|
----------------|----------------|----------------|----------------|
----------------|----------------|----------------|----------------|
----------------|----------------|----------------|----------------|
----------------|----------------|----------------|----------------|


    H.               Q    E   E   E    E         H.
------------------|-----------------------|--------------------|
------------------|-----------------------|--------------------|
--3g7~------------|--7----7S--5S--7S--10--|--10g12~------------|
------------------|-----------------------|--------------------|
------------------|-----------------------|--------------------|
------------------|-----------------------|--------------------|


   Q     E   E   Q          H.                Q     E   E   Q
----------------------|-------------------|----------------------|
----------------------|-------------------|----------------------|
--12----12--10p--8----|--8g10~------------|--10----10--12--10----|
----------------------|-------------------|----------------------|
----------------------|-------------------|----------------------|
----------------------|-------------------|----------------------|


     Q     E  Q.           Q     E  Q    E     H.
---------------------|----------------------|----------------|
---------------------|----------------------|----------------|
---------------------|-------------------8--|--7~------------|
--8g10~----8--7------|--7g10~----8--7-------|----------------|
---------------------|----------------------|----------------|
---------------------|----------------------|----------------|


  Q    E   E   E    E         H.                Q     Q.      E
-----------------------|--------------------|--------------------|
-----------------------|--------------------|--------------------|
--7----7S--5S--7S--10--|--10g12~------------|--12----14------15--|
-----------------------|--------------------|--------------------|
-----------------------|--------------------|--------------------|
-----------------------|--------------------|--------------------|


   H.                Q     Q.      E      H.               H        Q
-----------------|--------------------|-----------------|-----------------|
-----------------|--------------------|-----------------|-----------------|
--15~------------|--15----14------15--|--17~------------|--L--------L\----|
-----------------|--------------------|-----------------|-----------------|
-----------------|--------------------|-----------------|-----------------|
-----------------|--------------------|-----------------|-----------------|


        |---3---|  |---3---|
   Q    E   E   E  E   E   E      H         Q
------------------------------|-------------------|
--12--------------------------|--12~--------L\----|
-------------------9--11--12--|-------------------|
--------9--10--12-------------|-------------------|
------------------------------|-------------------|
------------------------------|-------------------|


         |---3---|   |---3---|
   Q     E   E   E   E   E   E      H         Q
--12----------------------------|--12~--------L\----|
--------------------12--13--15--|-------------------|
--------11--12--14--------------|-------------------|
--------------------------------|-------------------|
--------------------------------|-------------------|
--------------------------------|-------------------|


         |---3---|   |---3---|
   Q     E   E   E   E   E   E      H         Q
--------------------------------|-------------------|
--15------------------------12--|--15~--------L\----|
----------------11--12--14------|-------------------|
--------12--14------------------|-------------------|
--------------------------------|-------------------|
--------------------------------|-------------------|


         |---3---|   |---3---|
   Q     E   E   E   E   E   E      H         Q
--------------------------------|-------------------|
--15------------------------12--|--15~--------L\----|
----------------11--12--14------|-------------------|
--------12--14------------------|-------------------|
--------------------------------|-------------------|
--------------------------------|-------------------|


        |---3---|  |---3---|
   Q    E   E   E  E   E   E      H         Q
------------------------------|-------------------|
--12--------------------------|--12~--------L\----|
-------------------9--11--12--|-------------------|
--------9--10--12-------------|-------------------|
------------------------------|-------------------|
------------------------------|-------------------|


         |---3---|   |---3---|
   Q     E   E   E   E   E   E      H         Q
--12----------------------------|--12~--------L\----|
--------------------12--13--15--|-------------------|
--------11--12--14--------------|-------------------|
--------------------------------|-------------------|
--------------------------------|-------------------|
--------------------------------|-------------------|


         |---3--|   |---3--|
   Q     E  E   E   E  E   E      H         Q
------------------------------|-------------------|
------------------------------|-------------------|
--12-------------------9--11--|--12~--------L\----|
------------9--10--12---------|-------------------|
--------12--------------------|-------------------|
------------------------------|-------------------|


         |---3---|   |---3---|
   Q     E   E   E   E   E   E      H         Q           W
--------------------------------|-------------------|-----------------------|
--------------------------------|-------------------|-----------------------|
--14--------------------11--12--|--14~--------L\----|--8g12~----------------|
----------------12--14----------|-------------------|-----------------------|
--------14--15------------------|-------------------|-----------------------|
--------------------------------|-------------------|-----------------------|


   Q.      Q.      Q        W                    W
------------------------|---------------------|-------------------|
------------------------|---------------------|-------------------|
--14------12------14----|--16~----------------|--L----------------|
------------------------|---------------------|-------------------|
------------------------|---------------------|-------------------|
------------------------|---------------------|-------------------|


   H.             E    E       Q.      Q.      Q        W
---------------------------|------------------------|---------------------|
---------------------------|------------------------|---------------------|
--15~------------17S--19S--|--17------15------17----|--19~----------------|
---------------------------|------------------------|---------------------|
---------------------------|------------------------|---------------------|
---------------------------|------------------------|---------------------|


  W                   W                   W                   W
-------------------|-------------------|-------------------|-------------------|
-------------------|-------------------|-------------------|-------------------|
--L----------------|--L----------------|-------------------|-------------------|
-------------------|-------------------|-------------------|-------------------|
-------------------|-------------------|-------------------|-------------------|
-------------------|-------------------|-------------------|-------------------|


                                         |--3--|
  W                     Q.       Q    E  S  S  S  E     Q.      Q.     Q
-------------------|---------------------------------|----------------------|
-------------------|---------------------------------|----------------------|
-------------------|---------------------------------|----------------------|
-------------------|--5g8~------------8--7h-8p-7-----|--7-------------------|
-------------------|------------10---------------10--|---------10------8----|
-------------------|---------------------------------|----------------------|


  Q.      Q.      Q        Q     E   E   E   E  Q       W
-----------------------|-----------------------------|-------------------|
-----------------------|-----------------------------|-------------------|
-----------------------|-----------------------------|-------------------|
---------12------10----|--12----10-------------------|-------------------|
--9--------------------|------------13--12--10--8----|-------------------|
-----------------------|-----------------------------|-------------------|


  W                   W                   W                   W
-------------------|-------------------|-------------------|-------------------|
-------------------|-------------------|-------------------|-------------------|
-------------------|-------------------|-------------------|-------------------|
-------------------|-------------------|-------------------|-------------------|
-------------------|-------------------|-------------------|-------------------|
-------------------|-------------------|-------------------|-------------------|


  W                   W                   W                   W
-------------------|-------------------|-------------------|-------------------|
-------------------|-------------------|-------------------|-------------------|
-------------------|-------------------|-------------------|-------------------|
-------------------|-------------------|-------------------|-------------------|
-------------------|-------------------|-------------------|-------------------|
-------------------|-------------------|-------------------|-------------------|


  W                   W                   W                   W
-------------------|-------------------|-------------------|-------------------|
-------------------|-------------------|-------------------|-------------------|
-------------------|-------------------|-------------------|-------------------|
-------------------|-------------------|-------------------|-------------------|
-------------------|-------------------|-------------------|-------------------|
-------------------|-------------------|-------------------|-------------------|


  W                   W                   W                   W
-------------------|-------------------|-------------------|-------------------|
-------------------|-------------------|-------------------|-------------------|
-------------------|-------------------|-------------------|-------------------|
-------------------|-------------------|-------------------|-------------------|
-------------------|-------------------|-------------------|-------------------|
-------------------|-------------------|-------------------|-------------------|


  W                   W                   W                   W
-------------------|-------------------|-------------------|-------------------|
-------------------|-------------------|-------------------|-------------------|
-------------------|-------------------|-------------------|-------------------|
-------------------|-------------------|-------------------|-------------------|
-------------------|-------------------|-------------------|-------------------|
-------------------|-------------------|-------------------|-------------------|


  W                   W                   W                   W
-------------------|-------------------|-------------------|-------------------|
-------------------|-------------------|-------------------|-------------------|
-------------------|-------------------|-------------------|-------------------|
-------------------|-------------------|-------------------|-------------------|
-------------------|-------------------|-------------------|-------------------|
-------------------|-------------------|-------------------|-------------------|


  W                   W                   W                   W
-------------------|-------------------|-------------------|-------------------|
-------------------|-------------------|-------------------|-------------------|
-------------------|-------------------|-------------------|-------------------|
-------------------|-------------------|-------------------|-------------------|
-------------------|-------------------|-------------------|-------------------|
-------------------|-------------------|-------------------|-------------------|


  W                   W                   W                   W
-------------------|-------------------|-------------------|-------------------|
-------------------|-------------------|-------------------|-------------------|
-------------------|-------------------|-------------------|-------------------|
-------------------|-------------------|-------------------|-------------------|
-------------------|-------------------|-------------------|-------------------|
-------------------|-------------------|-------------------|-------------------|


  W                   W                   W                   W
-------------------|-------------------|-------------------|-------------------|
-------------------|-------------------|-------------------|-------------------|
-------------------|-------------------|-------------------|-------------------|
-------------------|-------------------|-------------------|-------------------|
-------------------|-------------------|-------------------|-------------------|
-------------------|-------------------|-------------------|-------------------|


  W                   W                   W                   W
-------------------|-------------------|-------------------|-------------------|
-------------------|-------------------|-------------------|-------------------|
-------------------|-------------------|-------------------|-------------------|
-------------------|-------------------|-------------------|-------------------|
-------------------|-------------------|-------------------|-------------------|
-------------------|-------------------|-------------------|-------------------|


  W                   W                   W                   W
-------------------|-------------------|-------------------|-------------------|
-------------------|-------------------|-------------------|-------------------|
-------------------|-------------------|-------------------|-------------------|
-------------------|-------------------|-------------------|-------------------|
-------------------|-------------------|-------------------|-------------------|
-------------------|-------------------|-------------------|-------------------|


  W                   W                   W                   W
-------------------|-------------------|-------------------|-------------------|
-------------------|-------------------|-------------------|-------------------|
-------------------|-------------------|-------------------|-------------------|
-------------------|-------------------|-------------------|-------------------|
-------------------|-------------------|-------------------|-------------------|
-------------------|-------------------|-------------------|-------------------|


  E  E  E  E  E  Q    E     E  E  E  E  H
-------------------------|-----------------------||
-------------------------|--8--8--8--8-----------||
-----7--7--7--7----------|--7--7--7--7-----------||
-----5--5--5--5----------|--5--5--5--5-----------||
-----5--5--5--5----------|-----------------------||
-------------------------|-----------------------||


******************************************************************************
##############################################################################
******************************************************************************


Rhythm guitar 1


     PM                                           PM    PM
     E        H        Q    E     H.           E  E     E  H        Q    E
E||----------------------------|---------------------|----------------------|
B||----------------------------|---------------------|----------------------|
G||----------------------------|---------------------|----------------------|
D||----------------------------|---------------------|----------------------|
A||--5-------------------------|---------------------|--5-------------------|
E||--3-------------------------|------------------3--|--3-------------------|


                  PM PM    PM
  H.           E  S  S     E  H        Q    E     W
------------------------|----------------------|-------------------|
------------------------|----------------------|-------------------|
------------------------|----------------------|-------------------|
------------------------|----------------------|-------------------|
------------------------|--5-------------------|-------------------|
------------------3--3--|--3-------------------|-------------------|


  PM PM PM PM PM PM PM PM    PM PM PM PM
  E  E  E  E  E  E  E  E     E  E  E  E  E  E  E  E
--------------------------|--------------------------|
--------------------------|--------------------------|
--------------------------|--------------------------|
--------------------------|--------------------------|
--5--5--5--5--5--5--5--5--|--5--5--5--5--5--5--5--5--|
--3--3--3--3--3--3--3--3--|--3--3--3--3--3--3--3--3--|


  E  E  E  E  E  E  E  E     E  E  E  Q    E  S  S E
--------------------------|---------------------------|
--------------------------|---------------------------|
--------3-----2--3--------|--3-----2--3----2-------2--|
--------------------------|-------------------3h-5----|
--------------------------|---------------------------|
--3--3-----3--------3--3--|-----3---------------------|


  E  E  E  E  E  E  E  E     E  E  E  E  E  E  S  S E
--------------------------|----------------------------|
-----------------------3--|--L-------------------------|
--------3-----2--3--------|-----5--3--5--3--2-------2--|
--------------------------|--------------------3h-5----|
--------------------------|----------------------------|
--3--3-----3--------3-----|----------------------------|


  E  E    E  E  E  E  E  E     E  E  E  E  E  E    E   S S
----------------------------|------------------------------|
-------------------------1--|--L--3--1---------------------|
--------1g2-----0--2--------|-----------2--0-----0g2p--0---|
--3--3-------3--------3-----|-----------------3----------3-|
----------------------------|------------------------------|
----------------------------|------------------------------|


  E  E  E  E  E  E  E    E     E  E  E  E  E  E  E  E
----------------------------|--------5--8--6--5--------|
----------------------------|-----7--------------8--7--|
--------2-----0--2-----5g7--|--L-----------------------|
--0--0-----0--------0-------|--------------------------|
----------------------------|--------------------------|
----------------------------|--------------------------|


  E  E  E  E  E  E  E  E      E  E  E  E  E  E  E  E
---------------------------|--------------------------|
-----------7--8--6--8--L\--|--------3-----1--3--------|
--------7------------------|--------------------------|
--5--8---------------------|--------------------------|
---------------------------|--------------------------|
---------------------------|--3--3-----3--------3--3--|


  E  E  E  Q    E  S  S E     E  E  E  E  E  E  E  E
---------------------------|-----------------------1--|
--3-----1--3----1-------1--|--------3-----1--3--------|
-------------------2h-3----|--------------------------|
---------------------------|--------------------------|
---------------------------|--------------------------|
-----3---------------------|--3--3-----3--------3-----|


  E  E  E  E  E  E  S S E     H.           E  E     H        H
--L--3--1--3--1--3----1-3--|---------------------|--------------------|
--------------------3------|---------------------|--------------------|
---------------------------|---------------------|--------------------|
---------------------------|------------------5--|--L--------7--------|
---------------------------|--3------------L--3--|--L--------5--------|
---------------------------|--1------------L-----|--------------------|


  H.           E    E     E  E  E  E  E  E  E  E
-----------------------|--------------------------|
-----------------------|--------------------------|
-----------------------|--------2--5--3--2--------|
-----------------------|-----4--------------5--4--|
--5------------L--3g5--|--L-----------------------|
--3------------L-------|--------------------------|


                                    PM PM PM PM PM PM PM PM
  E   E   E   E   E   E   E  E      S  S  S  S  S  S  S  S  S Q    E  S
---------10--14--15--13--15--L\--|--------------------------------------|
--8--11--------------------------|--------------------------------------|
---------------------------------|--------------------------------------|
---------------------------------|--------------------------------------|
---------------------------------|--------------------------5-----------|
---------------------------------|--3--3--3--3--3--3--3--3--3-----------|


  PM PM PM PM PM PM PM PM                     PM PM      PM PM
  S  S  S  S  S  S  S  S  S Q    E  S    Q    E  E  Q    E  E
--------------------------------------|------------------------|
--------------------------------------|------------------------|
--------------------------------------|--3---------------------|
--------------------------------------|--3----3--3--3----------|
--------------------------5-----------|--1----1--1--3----3--3--|
--3--3--3--3--3--3--3--3--3-----------|-------------1----1--1--|


       PM
                                     |--3--|  |--3--|
  Q    E  H        E       H         E  E  E  E  E  E
----------------------|--------------------------------|
----------------------|--------------------------------|
----------7--------L--|--------------------------------|
--5-------7--------L--|--5g8~-----------------------5--|
--5----5--5--------L--|--------------------5--6--8-----|
--3----3--------------|--------------6--8--------------|


                                      |--3--|
  Q     E  Q    E  E  E     H         E  E  E  Q
-------------------------|--------------------------|
-------------------------|--------------------------|
-------------------------|--------------------------|
--7~----8--7----5--------|--------------------------|
-------------------8--6--|--5~--------------5-------|
-------------------------|------------6--8-----8----|


                                    PM PM PM PM PM PM PM PM
     Q      E   Q     E   E   E     S  S  S  S  S  S  S  S  S Q    E  S
---------------------------------|--------------------------------------|
---------------------------------|--------------------------------------|
---------------------------------|--------------------------------------|
---------------------------------|--------------------------------------|
--9g12~----13--12~----8--10--12--|--------------------------5-----------|
---------------------------------|--3--3--3--3--3--3--3--3--3-----------|


  PM PM PM PM PM PM PM PM                     PM PM      PM PM
  S  S  S  S  S  S  S  S  S Q    E  S    Q    E  E  Q    E  E
--------------------------------------|------------------------|
--------------------------------------|------------------------|
--------------------------------------|--8---------------------|
--------------------------------------|--8----8--8--3----------|
--------------------------5-----------|--6----6--6--3----3--3--|
--3--3--3--3--3--3--3--3--3-----------|-------------1----1--1--|


       PM      PM PM
  Q    E  Q    E  E  E     E  E  E  E  E  E  E  E     E  E  E  E  E  E  E  E
------------------------|--------------------------|--------------------------|
------------------------|--------------------------|--------------------------|
--3-------5-------------|--------------------------|--------------------------|
--3----3--5----5--5--5--|--7--7--7--7--7--7--7--7--|--7--7--7--7--7--7--7--7--|
--1----1--3----3--3--3--|--5--5--5--5--5--5--5--5--|--5--5--5--5--5--5--5--5--|
------------------------|--------------------------|--------------------------|


                                PM PM          PM       PM PM        PM PM
  E  E  E  E  E  E  E  E     E  E  E  H        E     E  E  E  Q.     E  E
--------------------------|-----------------------|------------------------|
--------------------------|-----------------------|------------------------|
--------------------------|--5--------5-----------|--5--------5------------|
--8--8--8--8--------------|--5--5--5--5--------5--|--5--5--5--5------3--2--|
--6--6--6--6--3--3--3--3--|--3--3--3--3--------3--|--3--3--3--3------1--0--|
--------------1--1--1--1--|-----------------------|------------------------|


                  PM PM                    PM PM
  E  E  E  Q.     E  E     E  E  E  Q.     E  E
------------------------|------------------------|
------------------------|------------------------|
------------------------|------------------------|
--3--2-----5------------|--3--2-----5------------|
--1--0--x--5------5--5--|--1--0--x--5------5--5--|
-----------3------3--3--|-----------3------3--3--|


                     |--3--|
    Q.       Q    E  S  S  S  E     Q.      Q.     Q
---------------------------------|----------------------|
---------------------------------|----------------------|
---------------------------------|----------------------|
--5g8~------------8--7h-8p-7-----|--7-------------------|
------------10---------------10--|---------10------8----|
---------------------------------|----------------------|


  Q.      Q.      Q        Q     Q     Q     Q
-----------------------|--------------------10----|
-----------------------|--------------10----------|
-----------------------|--------11----------------|
---------12------10----|--12----------------------|
--9--------------------|--------------------------|
-----------------------|--------------------------|


  PM PM PM PM PM PM PM PM                PM PM PM PM PM PM PM PM
  S  S  S  S  S  S  S  S  S Q    E  S    S  S  S  S  S  S  S  S  S Q    E  S
--------------------------------------|--------------------------------------|
--------------------------------------|--------------------------------------|
--------------------------------------|--------------------------------------|
--------------------------------------|--------------------------------------|
--------------------------5-----------|--------------------------5-----------|
--3--3--3--3--3--3--3--3--3-----------|--3--3--3--3--3--3--3--3--3-----------|


       PM PM      PM PM         PM
  Q    E  E  Q    E  E     Q    E  H        E
------------------------|----------------------|
------------------------|----------------------|
--3---------------------|----------7--------L--|
--3----3--3--3----------|--5-------7--------L--|
--1----1--1--3----3--3--|--5----5--5--------L--|
-------------1----1--1--|--3----3--------------|


              |--3--|  |--3--|
    H         E  E  E  E  E  E     Q     E  Q    E  E  E
--------------------------------|-------------------------|
--------------------------------|-------------------------|
--------------------------------|-------------------------|
--5g8~-----------------------5--|--7~----8--7----5--------|
--------------------5--6--8-----|-------------------8--6--|
--------------6--8--------------|-------------------------|


            |--3--|
  H         E  E  E  Q          Q      E   Q     E   E   E
--------------------------|---------------------------------|
--------------------------|---------------------------------|
--------------------------|---------------------------------|
--------------------------|---------------------------------|
--5~--------------5-------|--9g12~----13--12~----8--10--12--|
------------6--8-----8----|---------------------------------|


  PM PM PM PM PM PM PM PM                PM PM PM PM PM PM PM PM
  S  S  S  S  S  S  S  S  S Q    E  S    S  S  S  S  S  S  S  S  S Q    E  S
--------------------------------------|--------------------------------------|
--------------------------------------|--------------------------------------|
--------------------------------------|--------------------------------------|
--------------------------------------|--------------------------------------|
--------------------------5-----------|--------------------------5-----------|
--3--3--3--3--3--3--3--3--3-----------|--3--3--3--3--3--3--3--3--3-----------|


       PM PM      PM PM         PM      PM PM
  Q    E  E  Q    E  E     Q    E  Q    E  E  E     E  E  E  E  E  E  E  E
------------------------|------------------------|--------------------------|
------------------------|------------------------|--------------------------|
--8---------------------|--3-------5-------------|--------------------------|
--8----8--8--3----------|--3----3--5----5--5--5--|--7--7--7--7--7--7--7--7--|
--6----6--6--3----3--3--|--1----1--3----3--3--3--|--5--5--5--5--5--5--5--5--|
-------------1----1--1--|------------------------|--------------------------|


  E  E  E  E  E  E  E  E     E  E  E  E  E  E  E  E     E  E  H        Q
--------------------------|--------------------------|----------------------|
--------------------------|--------------------------|----------------------|
--------------------------|--------------------------|----------------------|
--7--7--7--7--7--7--7--7--|--8--8--8--8--------------|----------------------|
--5--5--5--5--5--5--5--5--|--6--6--6--6--3--3--3--3--|--5--5----------------|
--------------------------|--------------1--1--1--1--|--3--3----------------|


  PM   PM PM             PM   PM PM               PM   PM PM
  Q    E  E  H           Q    E  E  Q     Q       Q    E  E  H
----------------------|------------------------|----------------------|
----------------------|------------------------|----------------------|
----------------------|------------------------|----------------------|
-------------8--------|-------------8S----7----|-------------3--------|
--8----8--8--8--------|--8----8--8--8S----7----|--3----3--3--3--------|
--6----6--6--6--------|--6----6--6--6S----5----|--1----1--1--1--------|


  PM   PM PM               PM   PM PM             PM   PM PM
  Q    E  E  Q     Q       Q    E  E  H           Q    E  E  Q     Q
------------------------|----------------------|------------------------|
------------------------|----------------------|------------------------|
------------------------|----------------------|------------------------|
-------------3S----4----|-------------5--------|-------------5S----7----|
--3----3--3--3S----4----|--5----5--5--5--------|--5----5--5--5S----7----|
--1----1--1--1S----2----|--3----3--3--3--------|--3----3--3--3S----5----|


  PM   PM PM                  PM PM                  PM   PM PM
  Q    E  E  H           Q    E  E  E  E   E   E     Q    E  E  H
----------------------|---------------------------|----------------------|
----------------------|---------------------------|----------------------|
-------------7--------|--8------------------------|----------------------|
--7----7--7--7--------|--8----8--8--7-------------|-------------8--------|
--5----5--5--5--------|--6----6--6--7-------------|--8----8--8--8--------|
----------------------|-------------5--1h--5h--6--|--6----6--6--6--------|


  PM   PM PM               PM   PM PM             PM   PM PM
  Q    E  E  Q     Q       Q    E  E  H           Q    E  E  Q     Q
------------------------|----------------------|------------------------|
------------------------|----------------------|------------------------|
------------------------|----------------------|------------------------|
-------------8S----7----|-------------3--------|-------------3S----4----|
--8----8--8--8S----7----|--3----3--3--3--------|--3----3--3--3S----4----|
--6----6--6--6S----5----|--1----1--1--1--------|--1----1--1--1S----2----|


  PM   PM PM             PM   PM PM               PM   PM PM
  Q    E  E  H           Q    E  E  Q     Q       Q    E  E  H
----------------------|------------------------|----------------------|
----------------------|------------------------|----------------------|
----------------------|------------------------|-------------7--------|
-------------5--------|-------------5S----7----|--7----7--7--7--------|
--5----5--5--5--------|--5----5--5--5S----7----|--5----5--5--5--------|
--3----3--3--3--------|--3----3--3--3S----5----|----------------------|


       PM PM
  Q    E  E  Q    E  E     E  E  E  E  E  E  E  E     E  E  E  Q    E  S  S E
------------------------|--------------------------|---------------------------|
------------------------|--------------------------|---------------------------|
--8---------------------|--------3-----2--3--------|--3-----2--3----2-------2--|
--8----8--8-------3--3--|--------------------------|-------------------3h-5----|
--6----6--6--3----3--3--|--------------------------|---------------------------|
-------------1----1--1--|--3--3-----3--------3--3--|-----3---------------------|


  E  E  E  E  E  E  E  E     E  E  E  E  E  E  S  S E
--------------------------|----------------------------|
-----------------------3--|--L-------------------------|
--------3-----2--3--------|-----5--3--5--3--2-------2--|
--------------------------|--------------------3h-5----|
--------------------------|----------------------------|
--3--3-----3--------3-----|----------------------------|


  E  E    E  E  E  E  E  E     E  E  E  E  E  E    E   S S
----------------------------|------------------------------|
-------------------------1--|--L--3--1---------------------|
--------1g2-----0--2--------|-----------2--0-----0g2p--0---|
--3--3-------3--------3-----|-----------------3----------3-|
----------------------------|------------------------------|
----------------------------|------------------------------|


  E  E  E  E  E  E  E    E     E  E  E  E  E  E  E  E
----------------------------|--------5--8--6--5--------|
----------------------------|-----7--------------8--7--|
--------2-----0--2-----5g7--|--L-----------------------|
--0--0-----0--------0-------|--------------------------|
----------------------------|--------------------------|
----------------------------|--------------------------|


  E  E  E  E  E  E  E  E      E  E  E  E  E  E  E  E
---------------------------|--------------------------|
-----------7--8--6--8--L\--|--------3-----1--3--------|
--------7------------------|--------------------------|
--5--8---------------------|--------------------------|
---------------------------|--------------------------|
---------------------------|--3--3-----3--------3--3--|


  E  E  E  Q    E  S  S E     E  E  E  E  E  E  E  E
---------------------------|-----------------------1--|
--3-----1--3----1-------1--|--------3-----1--3--------|
-------------------2h-3----|--------------------------|
---------------------------|--------------------------|
---------------------------|--------------------------|
-----3---------------------|--3--3-----3--------3-----|


  E  E  E  E  E  E  S S E     H.           E  E     H        H
--L--3--1--3--1--3----1-3--|---------------------|--------------------|
--------------------3------|---------------------|--------------------|
---------------------------|---------------------|--------------------|
---------------------------|------------------5--|--L--------7--------|
---------------------------|--3------------L--3--|--L--------5--------|
---------------------------|--1------------L-----|--------------------|


  H.           E    E     E  E  E  E  E  E  E  E
---------------
Добавлено: 24.02.2012
Другие материалы по этой песне:

Страница создана 24.02.2012
http://primanota.ru/falconer/the-clarion-call-chords.htm
Привет, Гость.
Предлагаем пройти революционный курс по гитаре.
Подарок от PrimaNota.Ru, забирай!